Oops, an error
Loading. Please wait.

Everything Is Connected And Everything Matters bass

412 views 1 this week
4 commentsread comments
1 2 3 4 5
1 last vote to show rating
add to favorites
×
Save as Personal and add changes to this tab that will be seen only by you. Learn more ›
×
You can save this tab as Personal to edit and correct it or add notes. All changes will be seen only by you. Learn more »
launch autoscroll
font size
0
reset
guitar tuner
edit
Autoscroll
slow
fast
+/-
esc
set tempo
stop
Author
Difficulty
-----------------------------------------------------------------------------------------
EVERYTHING IS CONNECTED AND EVERYTHING MATTERS - Empire! Empire! (I Was A Lonely Estate)
-----------------------------------------------------------------------------------------
Tabbed by: Joe Owens
E-mail: joeowens994@hotmail.com

Tuning: EADG

Just a heads up, this one's in 3/4. I've tried to format the tab so that you
can tell the rhythm.


Intro: Come in after 16 bars of guitar
G|------------|------------|------------|------------|
D|------------|------------|------------|2---2-2-2---|
A|0---0-0-0---|3---3-3-3---|------------|------------|
E|------------|------------|1---1-1-1---|------------|

G|------------|------------|------------|------------|
D|------------|------------|------------|------------|
A|0---0-0-0---|------------|------------|------------|
E|------------|3---3-3-3---|1---1-1-1---|3---3-3-3---|
Play the 8 bars through x6. Then distorted guitar comes in, play:

G|------------|------------|------------|------------|
D|------------|------------|2-----3-----|5-----3-----|
A|------------|------------|------------|------------|
E|1-----------|3-----------|------------|------------|

G|------------|------------|5-----4-----|5-----2-----|
D|------------|------------|------------|------------|
A|0-----------|3-----------|------------|------------|
E|------------|------------|------------|------------|
Play through x4.


Verse: guitar and vocals go for 16 bars, then come in with drums.
G|------------|------------|------------|------------|
D|------------|------------|3-----------|5-----------|
A|0-----------|3-----------|------------|------------|
E|------------|------------|------------|------------|
Play through x4, then:

G|------------|------------|------------|------------|
D|------------|------------|------------|------------|
A|0-----------|2-----------|3-----------|------------|
E|------------|------------|------------|------------|
                            let ring~~~~~~~~~~~~~~~~~
G|------------|------------|------------|5-----------|
D|2-----------|5-----------|------------|------------|
A|------------|------------|5-----------|------------|
E|------------|------------|------------|------------|
Play through x4, then distorted guitar comes back in, play this again:

G|------------|------------|------------|------------|
D|------------|------------|2-----3-----|5-----3-----|
A|------------|------------|------------|------------|
E|1-----------|3-----------|------------|------------|

G|------------|------------|5-----4-----|5-----2-----|
D|------------|------------|------------|------------|
A|0-----------|3-----------|------------|------------|
E|------------|------------|------------|------------|
Play through x4.


Finish on:
G|------------|------------|------------|------------|
D|------------|------------|3---3---3---|5---5---5---|
A|0---0---0---|3---3---3---|------------|------------|
E|------------|------------|------------|------------|

G|------------|
D|------------|
A|0---0---0---|
E|------------|
Don't let your last note ring out, cause the song ends after that with the
high pitched sound on its own. 

            
            
Suggest correction
Creating personal tab
Creating personal tab
You can edit any tab online and save it as your Personal.

You can edit, replace or remove any tab part or add personal notes – all changes will be seen only by you.

Personal tabs can be accessed anytime from any device, even offline.
Learn more »
Give kudos to tab author, rate the tab!
1 2 3 4 5
comments
print report bad tab
4 comments total. Showing first comments.
0 reply
l3rown_drake 10 Dec 03, 2015 02:33 PM

this is all wrong... Keith has posted the actually tabs here

http://www.mediafire.com/view/7ftc01aeta49gek/everything_is_connected_bass.txt

0 reply
l3rown_drake 10 Dec 03, 2015 02:35 PM

i gave this tab a 1 b/c its wrong and i cant give it a zero. i feel that this is the correct way to judge it

0 reply
l3rown_drake 10 Dec 03, 2015 02:35 PM

i gave this tab a 1 b/c its wrong and i cant give it a zero. i feel that this is the correct way to judge it

guest
You may want to rate the tab now too:
select rating
Wanna post a correction for this tab? Suggest correction