Oops, an error
Loading. Please wait.

Baby Baby Baby tab

version 1
version 1

Whole song

Interactive

4,001 views 1 this week
3 commentsread comments
1 2 3 4 5
x 3
add to favorites
×
Save as Personal and add changes to this tab that will be seen only by you. Learn more ›
×
You can save this tab as Personal to edit and correct it or add notes. All changes will be seen only by you. Learn more »
launch autoscroll
font size
0
reset
how to read this tab
guitar tuner
edit
Autoscroll
slow
fast
+/-
esc
set tempo
stop
Author
Difficulty
-------------------------------------------------------------------------------
                         Baby,Baby,Baby - Endeverafter
-------------------------------------------------------------------------------
Tabbed by:Taylor McCoy
Email:tmccoy10@radford.edu

Tuning: Standard

This is my first tab....this is a great band so i thought i'd throw up some tabs for them

x4
Intro and Chorus
e|---------------------------------------------------------------------------|
B|---------------------------------------------------------------------------|
G|--2-------2----5~~---2------2---7~~--2----2--------2-------------4-5-4-----|
D|--2-------2----5~~---2------2---7~~--2----2--3-2-3-2--5---5-5----5-5-5-----|
A|--0-------0----3~~---0------0---5~~--0----0--3-2-3-0--5---5-5--------------|
E|-----3-------------------3--------------3----1-0-1----3-0-3-3--------------|

Verse
e|---------------------------------------------------------------------------|
B|---------------------------------------------------------------------------|
G|--2-----------------2------------------------------------------------------|
D|--2----------3------2------3-----------------------------------------------|
A|--0----------3------0------3-----------------------------------------------|
E|-------------1-------------1-----------------------------------------------|
Pre-Chorus
e|--------------------------------------------------------------------------|
B|--------------------------------------------------------------------------|
G|--2-2-2-2-2-2-------------------------------7-7-7-7-7-7-7-5-7-------------|
D|--2-2-2-2-2-2----------3-3-3-3--3-3---------7-7-7-7-7-7-7-5-7---3-3-3-3---|
A|--0-0-0-0-0-0--0---3---3-3-3-3--3-3-------3-5-5-5-5-5-5-5-3-5---3-3-3-3---|
E|--------------3--3-----1-1-1-1--1-1-1-0-1---------------------0-1-1-1-1---|

e|-----------------------------------------------------------------------------|
B|-----------------------------------------------------------------------------|
G|----------2-2--5-7-----5-7---------------------------------------------------|
D|-5-5-5-5--2-2--5-7-5-7-5-7--3----5-5-----------------------------------------|
A|-5-5-5-5--0-0--3-5-5-7-3-5--3----5-5-----------------------------------------|
E|-3-3-3-3-----------3-5------1----3-3-----------------------------------------|

Chorus
e|---------------------------------------------------------------------------|
B|---------------------------------------------------------------------------|
G|--2-------2----5~~---2------2---7~~--2----2--------2-------------4-5-4-----|
D|--2-------2----5~~---2------2---7~~--2----2--3-2-3-2--5---5-5----5-5-5-----|
A|--0-------0----3~~---0------0---5~~--0----0--3-2-3-0--5---5-5--------------|
E|-----3-------------------3--------------3----1-0-1----3-0-3-3--------------|

Chorus outro
e|----------------------------------------------------------------------------|
B|----------------------------------------------------------------------------|
G|--7-------------------------------------------------------------------------|
D|--7--x16---3----------------------------------------------------------------|
A|--5--------3----------------------------------------------------------------|
E|-----------1----------------------------------------------------------------|

I'll do the rest when i have more time....this is a start.

| /  slide up
| \  slide down
| h  hammer-on
| p  pull-off
| ~  vibrato
| +  harmonic
| x  Mute note
===============================================================================

            
            
Suggest correction
Creating personal tab
Creating personal tab
You can edit any tab online and save it as your Personal.

You can edit, replace or remove any tab part or add personal notes – all changes will be seen only by you.

Personal tabs can be accessed anytime from any device, even offline.
Learn more »
Give kudos to tab author, rate the tab!
1 2 3 4 5
comments
print report bad tab
3 comments total.
0 reply
hrdcorelaxplaya 80 Feb 23, 2008 03:07 PM

Good, but no lead parts!

0 reply
mcflydrummer7 31 Feb 26, 2008 06:48 AM

I'm working on it right now man.

0 reply
mikey_1990 57 Jul 04, 2009 04:10 AM

Really good attempt you got the idea but im afraid its wrong, great work none the less, im just tabbing it up right now it should be on here shortly

guest
You may want to rate the tab now too:
select rating
Wanna post a correction for this tab? Suggest correction