Oops, an error
Loading. Please wait.

Single And Loving It intro tab

version 2
version 2

Intro

Whole song

Interactive

by Endwell
521 views 1 this week
no commentswrite comment
1 2 3 4 5
3 more votes to show rating
add to favorites
×
Save as Personal and add changes to this tab that will be seen only by you. Learn more ›
×
You can save this tab as Personal to edit and correct it or add notes. All changes will be seen only by you. Learn more »
launch autoscroll
font size
0
reset
how to read this tab
guitar tuner
edit
Autoscroll
slow
fast
+/-
esc
set tempo
stop
-------------------------------------------------------------------------------
                        Single And Loving It - Endwell
-------------------------------------------------------------------------------
Tabbed by:xGuitarxGirlx
Email:sallypistorio@excite.com

Tuning: Drop D

         Guitar 1 & Guitar 2
e|---------------------------------------------------------------------------|
B|---------------------------------------------------------------------------|
G|---------------------------------------------------------------------------|
D|-----1--------9--------4---------------------------------------------------|
A|-----1--------9--------4---------------------------------------------------|
D|-----1--------9--------4---------------------------------------------------|
       Guitar 1 (rhythm)

e|-----------------------------------------------------------------------------|
B|-----------------------------------------------------------------------------|
G|-----------------------------------------------------------------------------|
D|-----6-66-6-4-9-99-9-11----------------1---9---4-----------------------------|
A|-----6-66-6-4-9-99-9-11---2-22-22------1---9---4-----------------------------|
D|-----6-66-6-4-9-99-9-11---2-22-22------1---9---4-----------------------------|
     Guitar 2 (lead)

e|---------------------------------------------------------------------------|
B|----------------------------------------------------|----------------4-2---|
G|----------------------------4-3-------------3-------|----4-3---------------|
D|-----6-66-6-4-9-99-9-11----------4-1----1-4--4------|-------4-1---1-4------|
A|-----6-66-6-4-9-99-9-11--------------2-4------4-----|---------2-4----------|
D|-----6-66-6-4-9-99-9-11-----------------------------|----------------------|

+Let the first 3 notes ring.+
Alright, so practice that and I'll get some more up soon. My brother is the lead singer 
the band so I'll ask him to help me out. This is my first tab so I'm going to try some 
stuff next time. If you have any questions, ask away. Remember: DISTORTION!!!

            
            
Suggest correction
Creating personal tab
Creating personal tab
You can edit any tab online and save it as your Personal.

You can edit, replace or remove any tab part or add personal notes – all changes will be seen only by you.

Personal tabs can be accessed anytime from any device, even offline.
Learn more »
Give kudos to tab author, rate the tab!
1 2 3 4 5
comments
print report bad tab
guest
You may want to rate the tab now too:
select rating
Wanna post a correction for this tab? Suggest correction