Oops, an error
Loading. Please wait.

Hombre Elefante tab

version 1
version 1

Whole song

Interactive

926 views 1 this week
no commentswrite comment
1 2 3 4 5
1 last vote to show rating
add to favorites
×
Save as Personal and add changes to this tab that will be seen only by you. Learn more ›
×
You can save this tab as Personal to edit and correct it or add notes. All changes will be seen only by you. Learn more »
launch autoscroll
font size
0
reset
how to read this tab
guitar tuner
edit
Autoscroll
slow
fast
+/-
esc
set tempo
stop
Author
Difficulty
fergto78
--## Tablatura de mi versión para: Hombre Elefante de
Enjambre,
por Fernando Arroyo, checa mi
cover, para mayor referencia de la tab, en youtube,
http://youtu.be/rmXhaTnQymw?list=UUK7ZKAcQ60yiWFwJ-NC8dnA
además, podrás bajar los backing tracks para practicar :)

Afinación estándar
AL FINAL ESTA LA TAB DE 1ER GUITARRA
CAPO TRASTE 2
NOTA: para uso práctico de la tab, describiré los números
      de los trastes como si no hubiera capo.

SEGUNDA GUITARRA

Intro
   
  C#m . . . . . . . . . C#..........
|-4---------------------4-----------|
|-5---------------------6-----------|
|-6---------------------6-----------|
|-6---------------------6-----------|
|-4---------------------4-----------|
|-----------------------------------|

Verso

   F#m  B7  C#m  C#
|--2----2---4----4---|
|--2----4---5----6---|
|.-2----2---6----6--.|2 veces
|.-4----4---6----6--.|
|--4----2---4----4---|
|--2-----------------|

  F#m  B7
|-2----2--|
|-2----4--|
|-2----2--|
|-4----4--|
|-4----2--|
|-2-------|

Coro

  E  B  E  B  F#m B  E  G#m E  G#m  C#m . .
|-4-----4------------4--4---4--4----4------|
|-5--4--5--4--2---4--5--4---5--4----5------|
|-4--4--4--4--2---4--4--4---4--4----6------|
|----4-----4--4---4-----------------6------|
|-------------4---------------------4------|
|------------------------------------------|

Puente al solo

  F#m  B7  C#m . . . . . . . . C#.....
|-2----2---4-------------------4------|
|-2----4---5-------------------6------|
|-2----2---6-------------------6------|
|-4----4---6-------------------6------|
|-4----2---4-------------------4------|
|-2-----------------------------------|

Solo

   F#m  B7  C#m  C#
|--2----2---4----4---|
|--2----4---5----6---|
|.-2----2---6----6--.|2 veces
|.-4----4---6----6--.|
|--4----2---4----4---|
|--2-----------------|

Puente al coro

  F#m  B7
|-2----2--|
|-2----4--|
|-2----2--|
|-4----4--|
|-4----2--|
|-2-------|

Coro

  E  B  E  B  F#m B  E  G#m E  G#m  C#m . .
|-4-----4------------4--4---4--4----4------|
|-5--4--5--4--2---4--5--4---5--4----5------|
|-4--4--4--4--2---4--4--4---4--4----6------|
|----4-----4--4---4-----------------6------|
|-------------4---------------------4------|
|------------------------------------------|

  F#m  B7  C#m . . . . . . . . 
|-2----2---4-------------------|
|-2----4---5-------------------|
|-2----2---6-------------------|
|-4----4---6-------------------|
|-4----2---4-------------------|
|-2----------------------------|

Puente (al 5to tiempo entra)

|----4-----4---------5-----5---------|
|------2-----2---2-----2-----2---2---|
|.-6-----6-----6---7-----7-----7----.|2 veces
|.----------------------------------.|
|------------------------------------|
|------------------------------------|

Coro 

  E  G#m E  G#m  C#m . .
|-4--4---4--4----4------|
|-5--4---5--4----5------|
|-4--4---4--4----6------|
|----------------6------|
|----------------4------|
|-----------------------|

Outro

   F#m  B7
|--2----2-----4-----4---------5-----5---------|
|--2----4-------2-----2---2-----2-----2---2---|
|.-2----2---6-----6-----6---7-----7-----7----.|2 veces
|.-4----4------------------------------------.|
|--4----2-------------------------------------|
|--2------------------------------------------|

  F#m  B7  Emaj7 
|-2----2---4----|
|-2----4---4----|
|-2----2---4----|
|-4----4--------|
|-4----2--------|
|-2-------------|

-----------------------------------------------------
1ER GUITARRA
CAPO TRASTE 2

Entra al 4to tiempo y de manera gradual

Intro

|------------------|
|---2---2---2---2--|
|-6---6---6---6----|
|------------------|
|------------------|
|------------------|

Verso

|-------------------|
|----2---2---2---2--|
|.-6---6---6---6---.|3 veces
|.-----------------.|
|-------------------|
|-------------------|

|-------------------|
|----2---2---2---2--|
|.-6---6---6---6---.|3 veces
|.-----------------.|
|-------------------|
|-------------------|

|-------------------|
|----2---2---2---2--|
|.-6---6---6---6---.|2 veces
|.-----------------.|
|-------------------|
|-------------------|

Coro 

|----------------------------------------------------|
|-----12------------------------16----16----12----12-|
|./13----13----13----13-13/(16)----16----16----16---.|2x
|.----------14----14--------------------------------.|
|----------------------------------------------------|
|----------------------------------------------------|

|----------------------------------------------------|
|-------------------2--------------------------------|
|-14----14----14------14------14----14-14/(16)~~~/---|
|----11----11----11--------11----11------------------|
|----------------------------------------------------|
|----------------------------------------------------|

|----------------------------------------------------|
|-----12----------12------------16----16----16----16-|
|./13----13----13----13-13/(16)----16----16----16---.|2x
|.----------14--------------------------------------.|
|----------------------------------------------------|
|----------------------------------------------------|

|----------------------------|
|----------------------------|
|-16-16/(18)--16--14-13-13---|
|----------------------------|
|----------------------------|
|----------------------------|

|---------------------------------------|
|---------------------------------------|
|--------11-13-11-----------------------|
|-11--14----------14-11--14--13----13/--|
|-------------------------------14------|
|---------------------------------------|

Puente al solo

|-------------------|
|----2---2---2---2--|
|.-6---6---6---6---.|3 veces
|.-----------------.|
|-------------------|
|-------------------|

Solo

|---------------------------------------------------|
|---------------------------------------------------|
|---------------------------------------------------|
|-11b-11b-11b-11b-11b-11b-11b-11---11/16--16-16-16--|
|---------------------------------------------------|
|---------------------------------------------------|

|---------------------------------------------------|
|---------------------------------------------------|
|-/14-14-14-14-14-13--13-13-----------/13-13-13-14--|
|---------------------------14/(11)~~~--------------|
|---------------------------------------------------|
|---------------------------------------------------|

|---------------------------------------------------|
|---------------------------------------------------|
|------------------11-13~~-------11-13--14-13-13-11-|
|14/(11)~~~--11-14---------11-14--------------------|
|---------------------------------------------------|
|---------------------------------------------------|

|----------------------------------------------|
|-12/(9)~~~--12p9----9~~~--10p9-10p9-10p9-10p9-|
|-----------------11---------------------------|
|----------------------------------------------|
|----------------------------------------------|
|----------------------------------------------|

|----11----11---/12~~~/------------------------|
|-10----10----10-------------------------------|
|----------------------------------------------|
|----------------------------------------------|
|----------------------------------------------|
|----------------------------------------------|

Coro 

|----------------------------------------------------|
|-----12------------------------16----16----12----12-|
|./13----13----13----13-13/(16)----16----16----16---.|2x
|.----------14----14--------------------------------.|
|----------------------------------------------------|
|----------------------------------------------------|

|----------------------------------------------------|
|-------------------2--------------------------------|
|-14----14----14------14------14----14-14/(16)~~~/---|
|----11----11----11--------11----11------------------|
|----------------------------------------------------|
|----------------------------------------------------|

|----------------------------------------------------|
|-----12----------12------------16----16----16----16-|
|./13----13----13----13-13/(16)----16----16----16---.|2x
|.----------14--------------------------------------.|
|----------------------------------------------------|
|----------------------------------------------------|

|----------------------------|
|----------------------------|
|-16-16/(18)--16--14-13-13---|
|----------------------------|
|----------------------------|
|----------------------------|

|-------------------------------------------|
|-------------------------------------------|
|--------11-13-11-----------------------6~~~|
|-11--14----------14-11--14--13----13/------|
|-------------------------------14----------|
|-------------------------------------------|

Puente

|----9-----9---------9-----9--------|
|------2-----2---2-----2-----2---2--|
|.-6-----6-----9---7-----7-----7---.|4 veces
|.---------------------------------.|
|-----------------------------------|
|-----------------------------------|

Puente coro

|---7-----7-------------11-----11---------|
|-----2-----2---2----------2------2---2---|
|-4-----4-----4---4/(8)------8------8---8/|
|-----------------------------------------|
|-----------------------------------------|
|-----------------------------------------|

|----7-----7-------------11-----11---------|
|------2-----2---2----------2------2---2---|
|(4)-----4-----4---4/(8)------8------8---8/|
|------------------------------------------|
|------------------------------------------|
|------------------------------------------|

|-----16------16----------------14------14--------|
|--------2-------2----2------------2-------2----2-|
|(13)------13------13---13/(11)------11------11---|
|-------------------------------------------------|
|-------------------------------------------------|
|-------------------------------------------------|

Coro 

|----------------------------------------------------|
|-----12----------12------------16----16----16----16-|
|./13----13----13----13-13/(16)----16----16----16---.|2x
|.----------14--------------------------------------.|
|----------------------------------------------------|
|----------------------------------------------------|

|----------------------------|
|----------------------------|
|-16-16/(18)--16--14-13-13---|
|----------------------------|
|----------------------------|
|----------------------------|

|---------------------------------------|
|---------------------------------------|
|--------11-13-11-----------------------|
|-11--14----------14-11--14--13----13/--|
|-------------------------------14------|
|---------------------------------------|

Outro

|---9-----9---------9-----|
|-----2-----2---2-----2---|
|-6-----6-----9---7-----7-|
|-------------------------|
|-------------------------|
|-------------------------|

|---------------------------------------|
|---------------------------------------|
|--------11-13-11-----------------------|
|-11--14----------14-11--14--13----13/--|
|-------------------------------14------|
|---------------------------------------|

|---9-----9---------9-----|
|-----2-----2---2-----2---|
|-6-----6-----9---7-----7-|
|-------------------------|
|-------------------------|
|-------------------------|

|---------------------------------------|
|---------------------------------------|
|--------11-13-11-----------------------|
|-11--14----------14-11--14--13----13/--|
|-------------------------------14------|
|---------------------------------------|

|--------|
|-9~~~---|
|-8~~~---|
|-9~~~---|
|--------|
|--------|

            
            
Suggest correction
Creating personal tab
Creating personal tab
You can edit any tab online and save it as your Personal.

You can edit, replace or remove any tab part or add personal notes – all changes will be seen only by you.

Personal tabs can be accessed anytime from any device, even offline.
Learn more »
Give kudos to tab author, rate the tab!
1 2 3 4 5
comments
print report bad tab
guest
You may want to rate the tab now too:
select rating
Wanna post a correction for this tab? Suggest correction