Oops, an error
Loading. Please wait.

Goblins Dance tab

version 2
version 2

Whole song

Interactive

522 views 1 this week
no commentswrite comment
1 2 3 4 5
3 more votes to show rating
add to favorites
×
Save as Personal and add changes to this tab that will be seen only by you. Learn more ›
×
You can save this tab as Personal to edit and correct it or add notes. All changes will be seen only by you. Learn more »
launch autoscroll
font size
0
reset
how to read this tab
guitar tuner
edit
Autoscroll
slow
fast
+/-
esc
set tempo
stop
#----------------------------------PLEASE NOTE---------------------------------#
#This file is the author's own work and represents their interpretation of the #
#song. You may only use this file for private study, scholarship, or research. #
#------------------------------------------------------------------------------#

GOBLIN'S DANCE
As recorded by Ensiferum
(From the 2001 Album ENSIFERUM)

Transcribed by Hard 'n' Heavy
        

Words and Music by Ensiferum
Arranged by Ensiferum

Gtr I (E A D G B E) - 'Gtr. 1'
Gtr II (E A D G B E) - 'Gtr. 2'
Gtr III (E A D G B E) - 'Chorus Aahs'

   Intro
    Q.=110
    F5
   6/4
    Gtrs I, II
    PM---------------------------------------
    E S S S S E S S S S E S S S S E S S S S
||------------------------------------------|
||o-----------------------------------------|
||------------------------------------------|
||------------3-----------------------------|
||o-3---------3-----------------------------|
||--1-1-1-1-1-1-1-1-1-1-4-1-1-1-1-4-1-1-1-1-|


  E5                  F5
 ---------------------------------------|
  E S S S S E S S S S E S S S S E S S S S
|-------------------------------------------|
|-------------------------------------------|
|-------------------------------------------|
|-------------------------------------------|
|-2---------2---------3---------3-----------|
|-0-0-0-0-0-0-0-0-0-0-1-1-1-1-1-1-1-1-1-1---|


  PM---------------------------------------
  E S S S S E S S S S E S S S S E S S S S
|-----------------------------------------|
|-----------------------------------------|
|-----------------------------------------|
|-----------3-----------------------------|
|-3---------3-----------------------------|
|-1-1-1-1-1-1-1-1-1-1-4-1-1-1-1-4-1-1-1-1-|


  E5                  F5
 ---------------------------------------|
  E S S S S E S S S S E S S S S E S S S S
|-------------------------------------------||
|------------------------------------------o||
|-------------------------------------------||
|-------------------------------------------||
|-2---------2---------3---------3----------o||
|-0-0-0-0-0-0-0-0-0-0-1-1-1-1-1-1-1-1-1-1---||


    Bb5
    PM---------------------------------------
    E S S S S E S S S S E S S S S E S S S S
||------------------------------------------|
||o-----------------------------------------|
||------------3-----------------------------|
||--3---------3-----------------------------|
||o-1-1-1-1-1-1-1-1-1-1-4-1-1-1-1-4-1-1-1-1-|
||------------------------------------------|


  A5                  Bb5
 ---------------------------------------|
  E S S S S E S S S S E S S S S E S S S S
|-------------------------------------------||
|------------------------------------------o||
|-------------------------------------------||
|-2---------2---------3---------3-----------||
|-0-0-0-0-0-0-0-0-0-0-1-1-1-1-1-1-1-1-1-1--o||
|-------------------------------------------||


    Gtr I
    S S S S S S S S S S S S S S S S S S S S S S S S
||--------------------------------------------------|
||o-------------------------------------------------|
||--------------------------------------------------|
||--3-3-3-3-3-3-3-3-3-3-3-3-------------------------|
||o-------------------------4-4-4-4-4-4-4-4-4-4-4-4-|
||--------------------------------------------------|
|
|   Gtr II
|   PM-----------------------------------------------
|   E   S S S S E   S S S S E   S S S S E   S S S S
||--------------------------------------------------|
||o-------------------------------------------------|
||--------------3-----------------------------------|
||--3-----------3-----------------------------------|
||o-1---1-1-1-1-1---1-1-1-1-4---1-1-1-1-4---1-1-1-1-|
||--------------------------------------------------|


 1.
  A5                      Bb5
  S S S S S S S S S S S S S S S S S S S S S S S S
|-----------------------------------------------------||
|----------------------------------------------------o||
|-----------------------------------------------------||
|-----------------------------------------------------||
|-0-0-0-0-0-0-0-0-0-0-0-0-1-1-1-1-1-1-1-1-1-1-1-1----o||
|-----------------------------------------------------||
|
|-----------------------------------------------|
| E   S S S S E   S S S S E   S S S S E   S S S S
|-----------------------------------------------------||
|----------------------------------------------------o||
|-----------------------------------------------------||
|-2-----------2-----------3-----------3---------------||
|-0---0-0-0-0-0---0-0-0-0-1---1-1-1-1-1---1-1-1-1----o||
|-----------------------------------------------------||


  2.
  A5                      Bb5
                           ~~~
  S S S S S S S S S S S S  H.
|-----------------------------------------------|
|-----------------------------------------------|
|-----------------------------------------------|
|-----------------------------------------------|
|-0-0-0-0-0-0-0-0-0-0-0-0-[1]-------------------|
|-----------------------------------------------|
|
| PM---------------------------------------------
| E   S S S S E   S S S S  E  S S S S E S S S S
|-----------------------------------------------|
|-----------------------------------------------|
|-----------------------------------------------|
|-2-----------2------------3----------3---------|
|-0---0-0-0-0-0---0-0-0-0--1--1-1-1-1-1-1-1-1-1-|
|-----------------------------------------------|


   Verse
    F5                                        E5                  F5
    PM------------------------------------------------------------------------------|
    E S S S S E S S S S E S S S S E S S S S   E S S S S E S S S S E S S S S E S S S S
||------------------------------------------|--------------------------------------------|
||o-----------------------------------------|--------------------------------------------|
||------------------------------------------|--------------------------------------------|
||------------3-----------------------------|--------------------------------------------|
||o-3---------3-----------------------------|-2---------2---------3---------3------------|
||--1-1-1-1-1-1-1-1-1-1-4-1-1-1-1-4-1-1-1-1-|-0-0-0-0-0-0-0-0-0-0-1-1-1-1-1-1-1-1-1-1----|
|
|-----------------------------------------------------------------------------------|
|   E S S S S E S S S S E S S S S E S S S S   E S S S S E S S S S E S S S S E S S S S
||------------------------------------------|--------------------------------------------|
||o-----------------------------------------|--------------------------------------------|
||------------------------------------------|--------------------------------------------|
||------------3-----------------------------|--------------------------------------------|
||o-3---------3-----------------------------|-2---------2---------3---------3------------|
||--1-1-1-1-1-1-1-1-1-1-4-1-1-1-1-4-1-1-1-1-|-0-0-0-0-0-0-0-0-0-0-1-1-1-1-1-1-1-1-1-1----|


  Gtrs I, II
  PM---------------------------------------
  E S S S S E S S S S E S S S S E S S S S
|-----------------------------------------|
|-----------------------------------------|
|-----------------------------------------|
|-----------3-----------------------------|
|-3---------3-----------------------------|
|-1-1-1-1-1-1-1-1-1-1-4-1-1-1-1-4-1-1-1-1-|


 1.
  E5                  F5
 ---------------------------------------|
  E S S S S E S S S S E S S S S E S S S S
|-------------------------------------------||
|------------------------------------------o||
|-------------------------------------------||
|-------------------------------------------||
|-2---------2---------3---------3----------o||
|-0-0-0-0-0-0-0-0-0-0-1-1-1-1-1-1-1-1-1-1---||


                                            Chorus
  2.
                                          $
  E5                  F5                     F5    C5    F5        Eb5/Bb
  PM------------------------------------|
  E S S S S E S S S S E S S S S E S S S S    E E E E E E E E E E E E
|-----------------------------------------||--------------------------|
|-----------------------------------------||--------------------------|
|-----------------------------------------||--------------------------|
|-----------------------------------------||-------5-5-5-----------1--|
|-2---------2---------3---------3---------||-3-3-3-3-3-3-3-3-3-3-x-1--|
|-0-0-0-0-0-0-0-0-0-0-1-1-1-1-1-1-1-1-1-1-||-1-1-1-------1-1-1-1-x----|


  F5    C5    F5                       C5  F5          Eb5/BbF5
  E E E E E E E E E q.     E S S S S E E E E S S S S E E E
|------------------------|---------------------------------|
|------------------------|---------------------------------|
|------------------------|---------------------------------|
|-------5-5-5------------|-------------5-5-------------1-1-|
|-3-3-3-3-3-3-3-x-x-3----|-3---------3-3-3-3---------3-1-1-|
|-1-1-1-------1-x-x-1----|-1-1-1-1-1-1-----1-1-1-1-1-1-----|


              C5  F5
  E S S S S E E E E S S S S E Q
|----------------------------------|
|----------------------------------|
|----------------------------------|
|-------------5-5------------------|
|-3---------3-3-3-3---------3------|
|-1-1-1-1-1-1-----1-1-1-1-1-1------|


                           1.
          Eb5/BBb5   F5           Eb5/Bb   Bb5     G#5
    Gtr I
    E E E Q.   E E E Q.     E E E E  +E  E E +E  E Q.
||------------------------|------------------------------||
||o-----------------------|-----------------------------o||
||------------------------|------------------------------||
||------------------------|--------------3---------------||
||o-3---3-6----5-3---3----|-3---3-6--(6)---5-(5)---3----o||
||----6------------6------|---6------------------6-------||
|
|   Gtr III
|   E E E Q.   E E E Q.     E E E E  +E  E E +E  E Q.
||------------------------|------------------------------||
||o-----------------------|--------------6--------------o||
||--5---5-8----7-5---5----|-5---5-8--(8)---7-(7)---5-----||
||----8------------8------|---8------------------8-------||
||o-----------------------|-----------------------------o||
||------------------------|------------------------------||
|
|   Gtr II
|   E E E Q.   E E E Q.     E E E Q.       E  E  E Q.
||------------------------|------------------------------||
||o-----------------------|-----------------------------o||
||------------------------|------------------------------||
||--------1----3-x-x------|-------1--------3--x--x-------||
||o-3-x-x-1----1-x-x-3----|-3-x-x-1--------1--x--x-6----o||
||--1-x-x------------1----|-1-x-x------------------4-----||


  2.
  F5    Eb5/Bb   Bb5      G#5
  E E E E  +E  E E  +E  E Q.
|-------------------------------|
|-------------------------------|
|-------------------------------|
|--------------3----------------|
|-3---3-6--(6)---5--(5)---3-----|
|---6-------------------6-------|
|
| E E E E  +E  E E  +E  E Q.
|-------------------------------|
|--------------6----------------|
|-5---5-8--(8)---7--(7)---5-----|
|---8-------------------8-------|
|-------------------------------|
|-------------------------------|
|
| E E E Q.       Q.       Q.
|-------------------------------|
|-------------------------------|
|-------------------------------|
|-------1--------3--------------|
|-3-x-x-1--------1--------6-----|
|-1-x-x-------------------4-----|


   Interlude
    N.C.
    Gtr I
     S  S  S  S  S  S S S S S S S  S  S  S  S S S  S  S  S  S  S  S
||------------------------------------------------------------------|
||o-----------------------------------------------------------------|
||------------------------------------------------------------------|
||---------------------------------8--8--8--8-6-6-------------------|
||o--8--8--8--8--8--8-6-6-6-6-6-6------------------8--8--8--8--8--8-|
||------------------------------------------------------------------|
|
|   Gtr II
|    S  S  S  S  S  S S S S S S S  S  S  S  S S S  S  S  S  S  S  S
||------------------------------------------------------------------|
||o-----------------------------------------------------------------|
||--------------------------------10-10-10-10-8-8-------------------|
||--10-10-10-10-10-10-8-8-8-8-8-8-----------------10-10-10-10-10-10-|
||o-----------------------------------------------------------------|
||------------------------------------------------------------------|


  S S S S S S S S S S S S S S S S S S S S S S S S
|--------------------------------------------------||
|-------------------------------------------------o||
|--------------------------------------------------||
|--------------------------------------------------||
|-8-8-8-8-8-8-6-6-6-6-6-6-6-6-6-6-6-6-8-8-8-8-8-8-o||
|--------------------------------------------------||
|
| S S S S S S S S S S S S S S S S S S S S S S S S
|--------------------------------------------------||
|-------------------------------------------------o||
|--------------------------------------------------||
|-6-6-6-6-6-6-8-8-8-8-8-8-5-5-5-5------------------||
|---------------------------------6-6-8-8-8-8-8-8-o||
|--------------------------------------------------||


   Chorus
    F5    Eb5/BBb5   F5           Eb5/Bb   Bb5     Ab5
    Gtr I
    E E E Q.   E E E Q.     E E E E  +E  E E +E  E Q.
||------------------------|------------------------------||
||o-----------------------|-----------------------------o||
||------------------------|------------------------------||
||------------------------|--------------3---------------||
||o-3---3-6----5-3---3----|-3---3-6--(6)---5-(5)---3----o||
||----6------------6------|---6------------------6-------||
|
|   Gtr III
|   E E E Q.   E E E Q.     E E E E  +E  E E +E  E Q.
||------------------------|------------------------------||
||o-----------------------|--------------6--------------o||
||--5---5-8----7-5---5----|-5---5-8--(8)---7-(7)---5-----||
||----8------------8------|---8------------------8-------||
||o-----------------------|-----------------------------o||
||------------------------|------------------------------||
|
|   Gtr II
|   E E E Q.   E E E Q.     E E E Q.       E  E  E Q.
||------------------------|------------------------------||
||o-----------------------|-----------------------------o||
||------------------------|------------------------------||
||--------1----3-x-x------|-------1--------3--x--x-------||
||o-3-x-x-1----1-x-x-3----|-3-x-x-1--------1--x--x-6----o||
||--1-x-x------------1----|-1-x-x------------------4-----||


      F5    Eb5/Bb Bb5   F5
      E E E Q.     E E E Q.
|-||----------------------------|
|-||o---------------------------|
|-||----------------------------|
|-||----------------------------|
|-||o-3---3-6------5-3---3------|
|-||----6--------------6--------|
|
|     E E E Q.     E E E Q.
|-||----------------------------|
|-||o---------------------------|
|-||--5---5-8------7-5---5------|
|-||----8--------------8--------|
|-||o---------------------------|
|-||----------------------------|
|
|     E E E E  E E E E E E  E E
|-||----------------------------|
|-||o---------------------------|
|-||----------------------------|
|-||--------1--1-1-3-x-x--------|
|-||o-3-x-x-1--1-1-1-x-x-3--3-3-|
|-||--1-x-x--------------1--1-1-|


                                    Verse
                      To Coda
        Eb5/Bb          Ab5          F5
                                     PM---------------------------------------
  E E E E +E  E E +E  E Q.           E S S S S E S S S S E S S S S E S S S S
|-----------------------------||-||------------------------------------------|
|----------------------------o||-||o-----------------------------------------|
|-----------------------------||-||------------------------------------------|
|-------------3---------------||-||------------3-----------------------------|
|-3---3-6-(6)---5-(5)---3----o||-||o-3---------3-----------------------------|
|---6-----------------6-------||-||--1-1-1-1-1-1-1-1-1-1-4-1-1-1-1-4-1-1-1-1-|
|
| E E E E +E  E E +E  E Q.           W
|-----------------------------||-||------------------------------------------|
|-------------6--------------o||-||o-----------------------------------------|
|-5---5-8-(8)---7-(7)---5-----||-||------------------------------------------|
|---8-----------------8-------||-||------------------------------------------|
|----------------------------o||-||o-----------------------------------------|
|-----------------------------||-||------------------------------------------|
|
|                                    PM---------------------------------------
| E E E E  E  E E  E  E Q.           E S S S S E S S S S E S S S S E S S S S
|-----------------------------||-||------------------------------------------|
|----------------------------o||-||o-----------------------------------------|
|-----------------------------||-||------------------------------------------|
|-------1--1--1-3--x--x-------||-||------------3-----------------------------|
|-3-x-x-1--1--1-1--x--x-6----o||-||o-3---------3-----------------------------|
|-1-x-x-----------------4-----||-||--1-1-1-1-1-1-1-1-1-1-4-1-1-1-1-4-1-1-1-1-|


  E5                  F5
 ---------------------------------------|
  E S S S S E S S S S E S S S S E S S S S
|--------------------------------------------||
|-------------------------------------------o||
|--------------------------------------------||
|--------------------------------------------||
|-2---------2---------3---------3-----------o||
|-0-0-0-0-0-0-0-0-0-0-1-1-1-1-1-1-1-1-1-1----||
|
| W
|--------------------------------------------||
|-------------------------------------------o||
|--------------------------------------------||
|--------------------------------------------||
|-------------------------------------------o||
|--------------------------------------------||
|
|---------------------------------------|
| E S S S S E S S S S E S S S S E S S S S
|--------------------------------------------||
|-------------------------------------------o||
|--------------------------------------------||
|--------------------------------------------||
|-2---------2---------3---------3-----------o||
|-0-0-0-0-0-0-0-0-0-0-1-1-1-1-1-1-1-1-1-1----||


    Bb5
    Gtrs I, II
    PM---------------------------------------
    E S S S S E S S S S E S S S S E S S S S
||------------------------------------------|
||o-----------------------------------------|
||------------3-----------------------------|
||--3---------3-----------------------------|
||o-1-1-1-1-1-1-1-1-1-1-4-1-1-1-1-4-1-1-1-1-|
||------------------------------------------|


  A5                  Bb5
 ---------------------------------------|
  E S S S S E S S S S E S S S S E S S S S
|-------------------------------------------||
|------------------------------------------o||
|-------------------------------------------||
|-2---------2---------3---------3-----------||
|-0-0-0-0-0-0-0-0-0-0-1-1-1-1-1-1-1-1-1-1--o||
|-------------------------------------------||


    F5
    PM---------------------------------------
    E S S S S E S S S S E S S S S E S S S S
||------------------------------------------|
||o-----------------------------------------|
||------------------------------------------|
||------------3-----------------------------|
||o-3---------3-----------------------------|
||--1-1-1-1-1-1-1-1-1-1-4-1-1-1-1-4-1-1-1-1-|


                              D.S. al Coda
  E5                  F5
 ---------------------------------------|
  E S S S S E S S S S E S S S S E S S S S
|-------------------------------------------||
|------------------------------------------o||
|-------------------------------------------||
|-------------------------------------------||
|-2---------2---------3---------3----------o||
|-0-0-0-0-0-0-0-0-0-0-1-1-1-1-1-1-1-1-1-1---||


 Guitar Solo
  &
  F5
  Gtr I
                            |--3--|
  E E   E   Q     E   Q     S S   S Q     E
|---------------------------------------------|
|---------------------------------------------|
|---------------------------------------------|
|---------------------------------------------|
|-----------3-----5---6-----5h6p==5-----------|
|-1-3---4---------------------------7-----8---|
|
| Gtr II
| PM-------------------------------------------
| E S S S S E S S S S E S S S   S   E S S S S
|---------------------------------------------|
|---------------------------------------------|
|---------------------------------------------|
|-----------3---------------------------------|
|-3---------3---------------------------------|
|-1-1-1-1-1-1-1-1-1-1-4-1-1-1---1---4-1-1-1-1-|


  E5                    F5
  Q.          E E   E    H            E    S  S
|-------------------------------------------------|
|-------------------------------------------------|
|-------------------9---10\------------------10---|
|---------------9-------------------------13------|
|-7----------10-----------------------------------|
|-------------------------------------------------|
|
|--------------------------------------------|
| E  S S S S  E S S S S  E  S S S S E S S  S  S
|-------------------------------------------------|
|-------------------------------------------------|
|-------------------------------------------------|
|-------------------------------------------------|
|-2-----------2----------3----------3-------------|
|-0--0-0-0-0--0-0-0-0-0--1--1-1-1-1-1-1-1--1--1---|


                                                       ~~~
   S  S  S  S  S  S  S S  S  S  S S  S  S  S  S  S  S  Q.
|-----------------------------------16p13-------------------------|
|-------------------13p9----------9-------13----------------------|
|-13p10----------10------10----10------------13-------------------|
|-------10----10------------10------------------15----------------|
|----------11--------------------------------------15-------------|
|-----------------------------------------------------13----------|
|
|  PM--------------------------------------------------------------
|  E     S  S  S  S  E    S  S  S S  E     S  S  S  S  E  S S S S
|-----------------------------------------------------------------|
|-----------------------------------------------------------------|
|-----------------------------------------------------------------|
|--------------------3--------------------------------------------|
|--3-----------------3--------------------------------------------|
|--1-----1--1--1--1--1----1--1--1-1--4-----1--1--1--1--4--1-1-1-1-|


  E5                       F5
                             ~~~~
   Q.          E  E    E     Q.         Q.
|---------------------------------------------------|
|---------------------------------------------------|
|---------------------------------------------------|
|---------------------------------------------------|
|-------------14------------------------------------|
|-12-------------12---15---[13]---------------------|
|
|------------------------------------------------|
|  E  S S S S  E  S S  S S   E  S S S S E  S S S S
|---------------------------------------------------|
|---------------------------------------------------|
|---------------------------------------------------|
|---------------------------------------------------|
|--2-----------2-------------3----------3-----------|
|--0--0-0-0-0--0--0-0--0-0---1--1-1-1-1-1--1-1-1-1--|


  Bb5
   S  S  S  S  S  S  S  S  S  S  S  S  S  S  S  S  S  S  S  S  S  S  S  S
|-------------------------------------------------------------------------|
|-------------------------------------17-18-17----------------------------|
|----------------------------------15----------18-17-15-17-18-17----------|
|-------------------14----14-15-17-------------------------------19-16-15-|
|----------13-15-16----16-------------------------------------------------|
|-14-13-14----------------------------------------------------------------|
|
|  PM----------------------------------------------------------------------
|  E     S  S  S  S  E     S  S  S  S  E     S  S  S  S  E     S  S  S  S
|-------------------------------------------------------------------------|
|-------------------------------------------------------------------------|
|--------------------3----------------------------------------------------|
|--3-----------------3----------------------------------------------------|
|--1-----1--1--1--1--1-----1--1--1--1--4-----1--1--1--1--4-----1--1--1--1-|
|-------------------------------------------------------------------------|


  A5                                  Bb5
   S  S  S  S  S  S  S  S  S  S  S  S  S  S  S  S  S  S  Q      E
|--------------------------------------------------------------------|
|--------------------------------------------------------------------|
|--------------------------------------------------------------------|
|-14-15-14----------------------------14h15p14h15p14h15p14\----------|
|----------16-15-13-15-16-15-13-15-16--------------------------------|
|--------------------------------------------------------------------|
|
|-----------------------------------------------------------------|
|  E     S  S  S  S  E     S  S  S  S  E     S  S  S  S  E  S S S S
|--------------------------------------------------------------------|
|--------------------------------------------------------------------|
|--------------------------------------------------------------------|
|--2-----------------2-----------------3-----------------3-----------|
|--0-----0--0--0--0--0-----0--0--0--0--1-----1--1--1--1--1--1-1-1-1--|
|--------------------------------------------------------------------|


   S  S  S  S  S  S  S  S  S  S  S  S  S  S  S  S  S  S  S  S  S  S  S  S
|----------------13-18p13----------13-14-13-------------------------------|
|-------------14----------14----14----------16-14-13----------------------|
|----------15----------------15----------------------15-14-11-------------|
|-------15----------------------------------------------------15-13-11----|
|-13h16----------------------------------------------------------------15-|
|-------------------------------------------------------------------------|
|
|  PM----------------------------------------------------------------------
|  E     S  S  S  S  E     S  S  S  S  E     S  S  S  S  E     S  S  S  S
|-------------------------------------------------------------------------|
|-------------------------------------------------------------------------|
|--------------------3----------------------------------------------------|
|--3-----------------3----------------------------------------------------|
|--1-----1--1--1--1--1-----1--1--1--1--4-----1--1--1--1--4-----1--1--1--1-|
|-------------------------------------------------------------------------|


  A5                               Bb5
                                    ~~~
   S  S  S  S  S  S  E  S  S  S  S  Q.         Q.
|------------------------------------------------------------|
|-------------------14-13-14-13------------------------------|
|----------13-15-16-------------14-15------------------------|
|-13-15-16---------------------------------------------------|
|------------------------------------------------------------|
|------------------------------------------------------------|
|
|-------------------------------------------------------|
|  E     S  S  S  S  E  S  S  S  S  E  S S S S E  S S S S
|------------------------------------------------------------|
|------------------------------------------------------------|
|------------------------------------------------------------|
|--2-----------------2--------------3----------3-------------|
|--0-----0--0--0--0--0--0--0--0--0--1--1-1-1-1-1--1-1-1-1----|
|------------------------------------------------------------|


  F5
      |---3---|          |---3---|          |---3---|
   E  S  S    S  E    E  S  S    S  E    E  S  S    S  E    Q.
|----------------------------------------------------------------------|
|-16-15h16p==15-13---15-13h15p==13-12---13-12h13p==12-10---------------|
|----------------------------------------------------------10----------|
|----------------------------------------------------------------------|
|----------------------------------------------------------------------|
|----------------------------------------------------------------------|
|
|  PM-------------------------------------------------------------------
|  E  S    S     S S  E  S    S     S S  E  S    S     S S  E  S S S S
|----------------------------------------------------------------------|
|----------------------------------------------------------------------|
|----------------------------------------------------------------------|
|---------------------3------------------------------------------------|
|--3------------------3------------------------------------------------|
|--1--1----1-----1-1--1--1----1-----1-1--4--1----1-----1-1--4--1-1-1-1-|


  E5                           F5
                                ~~~
   Q.          Q         +E     H.
|-------------20b21-----(20)---20----------------------|
|------------------------------------------------------|
|------------------------------------------------------|
|-14---------------------------------------------------|
|------------------------------------------------------|
|------------------------------------------------------|
|
|--------------------------------------------------|
|  E  S S S S  E    S S   S  S  E  S S S S E S S S S
|------------------------------------------------------|
|------------------------------------------------------|
|------------------------------------------------------|
|------------------------------------------------------|
|--2-----------2----------------3----------3-----------|
|--0--0-0-0-0--0----0-0---0--0--1--1-1-1-1-1-1-1-1-1---|


   S  S  S  S  S  S  S  S  S  S  S  S  S  S  S  S  S  S  S  S  S  S  S  S
|-16-18-16-15----15-16-15-------------------------------------------------|
|-------------18----------18-17-------------------------------------------|
|-------------------------------18-17-18-17-15----------15----------------|
|----------------------------------------------18-17-18----18-17-15-------|
|-------------------------------------------------------------------19-16-|
|-------------------------------------------------------------------------|
|
|  PM----------------------------------------------------------------------
|  E     S  S  S  S  E     S  S  S  S  E     S  S  S  S  E     S  S  S  S
|-------------------------------------------------------------------------|
|-------------------------------------------------------------------------|
|-------------------------------------------------------------------------|
|--------------------3----------------------------------------------------|
|--3-----------------3----------------------------------------------------|
|--1-----1--1--1--1--1-----1--1--1--1--4-----1--1--1--1--4-----1--1--1--1-|


  E5                         F5
                             ~~
  S  S S S S S  S S S S S  S H.
|------------7-12p7---------------------------------||
|----------8--------8-------------------------------||
|--------9------------9-----------------------------||
|------9----------------9---------------------------||
|-7h10--------------------10-8----------------------||
|---------------------------------------------------||
|
|-----------------------------------------------|
| E    S S S S  E   S S S  S E  S S S S E S S S S
|---------------------------------------------------||
|---------------------------------------------------||
|---------------------------------------------------||
|---------------------------------------------------||
|-2-------------2------------3----------3-----------||
|-0----0-0-0-0--0---0-0-0--0-1--1-1-1-1-1-1-1-1-1---||


   Bridge
                             1.,2.,3.
    Bb5                   Db5 EbAb5     DbEbAb5     Db5
    Gtrs I, II
      PM|   PM|   PM|   PM      PM|   PM    PM|   PM
    E E E E E E E E E E E E   E E E E E E E E E E E E
||--------------------------|--------------------------||
||o-------------------------|-------------------------o||
||--------------------------|--------------------------||
||------------------------6-|-8---------6-8---------6--||
||o-8-----8-----8-----8---4-|-6-----6---4-6-----6---4-o||
||--6-6-6-6-6-6-6-6-6-6-6---|---4-4-4-4-----4-4-4-4----||


 4.
  N.C.
  PM--------------------------------------------|
  S S S S S S S S S S S S S S S S S S S S S S S S
|---------------------------------------------------|
|---------------------------------------------------|
|---------------------------------------------------|
|---------------------------------------------------|
|-6-6-----------------4-4-6-6-----------------------|
|-----4-4-4-4-4-4-4-4---------4-4-4-4-4-4-4-4-4-4---|


   Breakdown
    F5        Bb5       Ab5      G5  F5        Bb5       Ab5      A5
    PM----------------------|        PM----------------------|
    E S S S S E S S S S E E E Q  E   E S S S S E S S S S E E E Q  E
||---------------------------------|--------------------------------|
||o--------------------------------|--------------------------------|
||---------------------------------|--------------------------------|
||------------3--------------------|-----------3--------------------|
||o-3---------1-1-1-1-1-6-----6--5-|-3---------1-1-1-1-1-6-----6--7-|
||--1-1-1-1-1-----------4-4-4-4--3-|-1-1-1-1-1-----------4-4-4-4--5-|


  Bb5       Eb5       Db5      C5  Bb5       Eb5       F5G5AbF5
  PM----------------------|        PM----------------------|
  E S S S S E S S S S E E E Q  E   E S S S S E S S S S E E E E Q
|--------------------------------|----------------------------------||
|--------------------------------|---------------------------------o||
|--------------------------------|----------------------------------||
|-----------8---------6-----6--5-|-----------8----------------------||
|-8---------6-6-6-6-6-4-4-4-4--3-|-8---------6-6-6-6-6-3-5-6-3-----o||
|-6-6-6-6-6----------------------|-6-6-6-6-6-----------1-3-4-1------||


   Chorus
    F5    Eb5/BBb5   F5           Eb5/Bb   Bb5     Ab5
    Gtr I
    E E E Q.   E E E Q.     E E E E  +E  E E +E  E Q.
||------------------------|------------------------------||-|
||o-----------------------|-----------------------------o||-|
||------------------------|------------------------------||-|
||------------------------|--------------3---------------||-|
||o-3---3-6----5-3---3----|-3---3-6--(6)---5-(5)---3----o||-|
||----6------------6------|---6------------------6-------||-|
|
|   Gtr III
|   E E E Q.   E E E Q.     E E E E  +E  E E +E  E Q.
||------------------------|------------------------------||-|
||o-----------------------|--------------6--------------o||-|
||--5---5-8----7-5---5----|-5---5-8--(8)---7-(7)---5-----||-|
||----8------------8------|---8------------------8-------||-|
||o-----------------------|-----------------------------o||-|
||------------------------|------------------------------||-|
|
|   Gtr II
|   E E E Q.   E E E Q.     E E E Q.       E  E  E Q.
||------------------------|------------------------------||-|
||o-----------------------|-----------------------------o||-|
||------------------------|------------------------------||-|
||--------1----3-x-x------|-------1--------3--x--x-------||-|
||o-3-x-x-1----1-x-x-3----|-3-x-x-1--------1--x--x-6----o||-|
||--1-x-x------------1----|-1-x-x------------------4-----||-|


    F5    Eb5/Bb Bb5   F5             Eb5/Bb  Bb5     Ab5
    E E E Q.     E E E Q.       E E E E +E  E E +E  E Q.
||----------------------------|-----------------------------||
||o---------------------------|----------------------------o||
||----------------------------|-----------------------------||
||----------------------------|-------------3---------------||
||o-3---3-6------5-3---3------|-3---3-6-(6)---5-(5)---3----o||
||----6--------------6--------|---6-----------------6-------||
|
|   E E E Q.     E E E Q.       E E E E +E  E E +E  E Q.
||----------------------------|-----------------------------||
||o---------------------------|-------------6--------------o||
||--5---5-8------7-5---5------|-5---5-8-(8)---7-(7)---5-----||
||----8--------------8--------|---8-----------------8-------||
||o---------------------------|----------------------------o||
||----------------------------|-----------------------------||
|
|   E E E E  E E E E E E  E E   E E E E  E  E E  E  E Q.
||----------------------------|-----------------------------||
||o---------------------------|----------------------------o||
||----------------------------|-----------------------------||
||--------1--1-1-3-x-x--------|-------1--1--1-3--x--x-------||
||o-3-x-x-1--1-1-1-x-x-3--3-3-|-3-x-x-1--1--1-1--x--x-6----o||
||--1-x-x--------------1--1-1-|-1-x-x-----------------4-----||


    F5    Eb5/Bb Bb5   F5             Eb5/Bb  Bb5     Ab5
    E E E Q.     E E E Q.       E E E E +E  E E +E  E Q.    4x
||----------------------------|-----------------------------||-|
||o---------------------------|----------------------------o||-|
||----------------------------|-------------3---------------||-|
||--3---3-6------5-3---3------|-3---3-6-(6)-3-5-(5)---3-----||-|
||o-3-6-3-6------5-3-6-3------|-3-6-3-6-(6)---5-(5)-6-3----o||-|
||----6--------------6--------|---6-----------------6-------||-|
|
|   E E E Q.     E E E Q.       E E E E +E  E E +E  E Q.    4x
||----------------------------|-----------------------------||-|
||o---------------------------|-------------6--------------o||-|
||--5---5-8------7-5---5------|-5---5-8-(8)---7-(7)---5-----||-|
||----8--------------8--------|---8-----------------8-------||-|
||o---------------------------|----------------------------o||-|
||----------------------------|-----------------------------||-|
|
|   E E E E  E E E E E E  E E   E E E E  E  E E  E  E Q.    4x
||----------------------------|-----------------------------||-|
||o---------------------------|----------------------------o||-|
||----------------------------|-----------------------------||-|
||--------1--1-1-3-x-x--------|-------1--1--1-3--x--x-------||-|
||o-3-x-x-1--1-1-1-x-x-3--3-3-|-3-x-x-1--1--1-1--x--x-6----o||-|
||--1-x-x--------------1--1-1-|-1-x-x-----------------4-----||-|


   Outro
    N.C.
     S  S  S  S  S  S S S S S S S  S  S  S  S S S  S  S  S  S  S  S
||-------------------------------------------------------------------|
||o------------------------------------------------------------------|
||-------------------------------------------------------------------|
||---------------------------------8--8--8--8-6-6--------------------|
||o--8--8--8--8--8--8-6-6-6-6-6-6------------------8--8--8--8--8--8--|
||-------------------------------------------------------------------|
|
|    W
||-------------------------------------------------------------------|
||o------------------------------------------------------------------|
||-------------------------------------------------------------------|
||-------------------------------------------------------------------|
||o------------------------------------------------------------------|
||-------------------------------------------------------------------|
|
|    S  S  S  S  S  S S S S S S S  S  S  S  S S S  S  S  S  S  S  S
||-------------------------------------------------------------------|
||o------------------------------------------------------------------|
||--------------------------------10-10-10-10-8-8--------------------|
||--10-10-10-10-10-10-8-8-8-8-8-8-----------------10-10-10-10-10-10--|
||o------------------------------------------------------------------|
||-------------------------------------------------------------------|


  1.,2.,3.
  Gtr I
  S S S S S S S S S S S S S S S S S S S S S S S S
|--------------------------------------------------||
|-------------------------------------------------o||
|--------------------------------------------------||
|--------------------------------------------------||
|-8-8-8-8-8-8-6-6-6-6-6-6-6-6-6-6-6-6-8-8-8-8-8-8-o||
|--------------------------------------------------||
|
| Gtr II
| S S S S S S S S S S S S S S S S S S S S S S S S
|--------------------------------------------------||
|-------------------------------------------------o||
|--------------------------------------------------||
|-6-6-6-6-6-6-8-8-8-8-8-8-5-5-5-5------------------||
|---------------------------------6-6-8-8-8-8-8-8-o||
|--------------------------------------------------||


 4.
                                    F5
  S S S S S S S S S S S S S S S S E  Q.
|-----------------------------------------*|
|-----------------------------------------*|
|-----------------------------------------*|
|-----------------------------------10\---*|
|-8-8-8-8-8-8-6-6-6-6-6-6-6-6-6-6-6--8\---*|
|-----------------------------------------*|
|
| S S S S S S S S S S S S S S S S E  Q.
|-----------------------------------------*|
|-----------------------------------------*|
|-----------------------------------------*|
|-6-6-6-6-6-6-8-8-8-8-8-8-5-5-5-5---10\---*|
|---------------------------------6--8\---*|
|-----------------------------------------*|



Duration Legend
---------------
W - whole; H - half; Q - quarter; E - 8th; S - 16th; T - 32nd; X - 64th; a - acciaccatura
+ - note tied to previous; . - note dotted; .. - note double dotted
Uncapitalized letters represent notes that are staccato (1/2 duration)
Irregular groupings are notated above the duration line
Duration letters will always appear directly above the note/fret number it represents the
duration for.  Duration letters with no fret number below them represent rests.  Multi-
bar rests are notated in the form Wxn, where n is the number of bars to rest for.  Low
melody durations appear below the staff

Tablature Legend
----------------
 h   - hammer-on
 p   - pull-off
 b   - bend
 pb  - pre-bend
 r   - bend release (if no number after the r, then release immediately)
 /\  - slide into or out of (from/to "nowhere")
 s   - legato slide
 S   - shift slide
 - natural harmonic
[n]  - artificial harmonic
n(n) - tapped harmonic
 ~   - vibrato
 tr  - trill
 T   - tap
 TP  - trem. picking
 PM  - palm muting
\n/  - tremolo bar dip; n = amount to dip
 \n  - tremolo bar down
 n/  - tremolo bar up
/n\  - tremolo bar inverted dip
 =   - hold bend; also acts as connecting device for hammers/pulls
 <> - volume swell (louder/softer)
 x   - on rhythm slash represents muted slash
 o   - on rhythm slash represents single note slash

Misc Legend
-----------
 |  - bar
||  - double bar
||o - repeat start
o|| - repeat end
*|  - double bar (ending)
 :  - bar (freetime)
 $  - Segno
 &  - Coda
Tempo markers -  = BPM(8/16=s8/s16), where s8 = swing 8ths, s16 = swing 16ths


            
            
Suggest correction
Creating personal tab
Creating personal tab
You can edit any tab online and save it as your Personal.

You can edit, replace or remove any tab part or add personal notes – all changes will be seen only by you.

Personal tabs can be accessed anytime from any device, even offline.
Learn more »
Give kudos to tab author, rate the tab!
1 2 3 4 5
comments
print report bad tab
guest
You may want to rate the tab now too:
select rating
Wanna post a correction for this tab? Suggest correction