Oops, an error
Loading. Please wait.

Guardians Of Fate tab

version 3
version 3

Whole song

Interactive

804 views 1 this week
no commentswrite comment
1 2 3 4 5
3 more votes to show rating
add to favorites
×
Save as Personal and add changes to this tab that will be seen only by you. Learn more ›
×
You can save this tab as Personal to edit and correct it or add notes. All changes will be seen only by you. Learn more »
launch autoscroll
font size
0
reset
how to read this tab
guitar tuner
edit
Autoscroll
slow
fast
+/-
esc
set tempo
stop
#----------------------------------PLEASE NOTE---------------------------------#
#This file is the author's own work and represents their interpretation of the #
#song. You may only use this file for private study, scholarship, or research. #
#------------------------------------------------------------------------------#

GUARDIANS OF FATE
As recorded by Ensiferum
(From the 2001 Album ENSIFERUM)

Transcribed by Bryan Zamzow
        

Words and Music by Jari Mäenpää ?/ Ensiferum
Arranged by Jari Mäenpää ?/ Ensiferum

Gtr I (E A D G B E) - 'Untitled'
Gtr II (E A D G B E) - 'Untitled'

 Intro
  Q=160
  F#5     C#5       E5      A5        E5      C#5       F#5
 4/4
  Gtr II                                                          Gtr I
  PM----------------------------------------------------------|
  E E E E E E E E   E E E E E E E E   E E E E E E E E   E E E E E S S S S S S
|-----------------|-----------------|-----------------|------------------------|
|-----------------|-----------------|-----------------|------------------------|
|-----------------|-----------------|-----------------|-----------x-x-x-x-x-x--|
|---------6-6-6-6-|---------2-2-2-2-|---------6-6-6-6-|-----------x-x-x-x-x-x--|
|-4-4-4-4-4-4-4-4-|-2-2-2-2-0-0-0-0-|-2-2-2-2-4-4-4-4-|-4-4-4-4-4-x-x-x-x-x-x--|
|-2-2-2-2---------|-0-0-0-0---------|-0-0-0-0---------|-2-2-2-2-2-x-x-x-x-x-x--|


  F#5       C#5         E5        A5
  Gtr I
  PM-----------------------------------------
  E E E S S E E E S S   E E E S S E E E S S
|---------------------|---------------------|
|---------------------|---------------------|
|---------------------|---------------------|
|-----------6-6-6-6-6-|-----------2-2-2-2-2-|
|-4-4-4-4-4-4-4-4-4-4-|-2-2-2-2-2-0-0-0-0-0-|
|-2-2-2-2-2-----------|-0-0-0-0-0-----------|
|
| Gtr II
| PM-----------------------------------------
| E E E S S E E E S S   E E E S S E E E S S
|---------------------|---------------------|
|---------------------|---------------------|
|---------------------|---------------------|
|-----------6-6-6-6-6-|-----------2-2-2-2-2-|
|-4-4-4-4-4-4-4-4-4-4-|-2-2-2-2-2-0-0-0-0-0-|
|-2-2-2-2-2-----------|-0-0-0-0-0-----------|


  E5        C#5       F#5
 -------------|
  E E E S S E E E E   E E E E Q  Q
|-------------------|---------------|
|-------------------|---------------|
|-------------------|---------------|
|-----------6-6-6-6-|---------------|
|-2-2-2-2-2-4-4-4-4-|-4-4-4-4-4-----|
|-0-0-0-0-0---------|-2-2-2-2-2-----|
|
|-------------|
| E E E S S E E E E   E E E E Q  Q
|-------------------|---------------|
|-------------------|---------------|
|-------------------|---------------|
|-----------6-6-6-6-|---------------|
|-2-2-2-2-2-4-4-4-4-|-4-4-4-4-4-----|
|-0-0-0-0-0---------|-2-2-2-2-2-----|


   Theme
    F#5   C#5     E5     A5       E5    C#5      F#5
                                                   PM----|   PM----|   PM|
    H     Q  Q    Q  E E Q  E E   Q  Q  E E Q    E S S S S E S S S S E S S
||--------------|---------------|--------------|------------------------------||
||o-------------|---------------|--------------|-----------------------------o||
||--------------|---------------|-4--4---------|------------------------------||
||--4-----6--7--|-6--6---7--6-7-|-------7-6----|-4-4-4-4-4-4-4-4-4-4-4-4-4----||
||o-------------|------7--------|-----------7--|-----------------------------o||
||--------------|---------------|--------------|------------------------------||
|
|                                                  PM----|   PM----|   PM|
|   Q  Q  Q  Q    Q  Q   Q  Q     Q  Q  Q   Q    E S S S S E S S S S E S S
||--------------|---------------|--------------|------------------------------||
||o-------------|---------------|--------------|-----------------------------o||
||--------6--6--|--------2--2---|-------6---6--|------------------------------||
||--4--4--6--6--|-2--2---2--2---|-2--2--6---6--|-4---------4---------4--------||
||o-4--4--4--4--|-2--2---0--0---|-2--2--4---4--|-4-4-4-4-4-4-4-4-4-4-4-4-4---o||
||--2--2--------|-0--0----------|-0--0---------|-2-2-2-2-2-2-2-2-2-2-2-2-2----||


  N.C.
  H               Q       Q         Q       E   E   Q       E   E
|---------------------------------|---------------------------------|
|---------------------------------|---------------------------------|
|---------------------------------|---------------------------------|
|-4---------------6-------7-------|-6-------6-------7-------6---7---|
|---------------------------------|-------------7-------------------|
|---------------------------------|---------------------------------|
|
| PM-----------------------------------------------------------------
| S S S S S S S S S S S S S S S S   S S S S S S S S S S S S S S S S
|---------------------------------|---------------------------------|
|---------------------------------|---------------------------------|
|---------------------------------|---------------------------------|
|---------------------------------|---------------------------------|
|-----------------4-4-4-4-4-4-4-4-|-----------------0-0-0-0-0-0-0-0-|
|-2-2-2-2-2-2-2-2-----------------|-0-0-0-0-0-0-0-0-----------------|


                                    F#5
                                      PM----|   PM----|   PM|
  Q       Q       E   E   Q         E S S S S E S S S S E S S
|---------------------------------|------------------------------|
|---------------------------------|------------------------------|
|-4-------4-----------------------|------------------------------|
|-----------------7---6-----------|-4-4-4-4-4-4-4-4-4-4-4-4-4----|
|-------------------------7-------|------------------------------|
|---------------------------------|------------------------------|
|
|-------------------------------|     PM----|   PM----|   PM|
| S S S S S S S S S S S S S S S S   E S S S S E S S S S E S S
|---------------------------------|------------------------------|
|---------------------------------|------------------------------|
|---------------------------------|------------------------------|
|---------------------------------|------------------------------|
|-----------------4-4-4-4-4-4-4-4-|-4---------4---------4--------|
|-0-0-0-0-0-0-0-0-----------------|-2-2-2-2-2-2-2-2-2-2-2-2-2----|


  F#5        C#5     E5         A5
  H          Q  Q    Q  E   E   Q  E E
|------------------|-------------------|
|------------------|-------------------|
|------------------|-------------------|
|-4----------6--7--|-6--6-------7--6-7-|
|------------------|--------7----------|
|------------------|-------------------|
|
|    PM----|            PM----|
| Q  S S S S Q  Q    Q  S S S S Q  Q
|------------------|-------------------|
|------------------|-------------------|
|------------6--6--|------------2--2---|
|-4----------6--6--|-2----------2--2---|
|-4--4-4-4-4-4--4--|-2--2-2-2-2-0--0---|
|-2--2-2-2-2-------|-0--0-0-0-0--------|


  E5         C#5      F#5
  Q  Q       E E Q    W
|-------------------|----------------------|
|-------------------|----------------------|
|-4--4--------------|----------------------|
|------------7-6----|-4--------------------|
|----------------7--|----------------------|
|-------------------|----------------------|
|
|    PM----|          PM------------|
| Q  S S S S Q   Q    S S S S S S S S H
|-------------------|----------------------|
|-------------------|----------------------|
|------------6---6--|----------------------|
|-2----------6---6--|-----------------4----|
|-2--2-2-2-2-4---4--|-4-4-4-4-4-4-4-4-4----|
|-0--0-0-0-0--------|-2-2-2-2-2-2-2-2-2----|


   Verse
    F#5              E5   D5
    Gtrs I, II
      PM--------|           PM------------------------|
    E S S S S S S Q  Q    E S S S S S S S S S S S S S S
||----------------------|-------------------------------|
||o---------------------|-------------------------------|
||----------------------|-7-----------------------------|
||--4-------------4--2--|-7-7-7-7-7-7-7-7-7-7-7-7-7-7-7-|
||o-4-4-4-4-4-4-4-4--2--|-5-5-5-5-5-5-5-5-5-5-5-5-5-5-5-|
||--2-2-2-2-2-2-2-2--0--|-------------------------------|


  C#5           A/C#  C#5     A5            C#5
    PM--------|   PM|   PM|     PM--------|   PM--------|
  E S S S S S S E S S E S S   E S S S S S S E S S S S S S
|---------------------------|-------------------------------||
|---------------------------|------------------------------o||
|-6-------------6-----6-----|---------------6---------------||
|-6-6-6-6-6-6-6-7-7-7-6-6-6-|-7-------------6-6-6-6-6-6-6---||
|-4-4-4-4-4-4-4-4-4-4-4-4-4-|-7-7-7-7-7-7-7-4-4-4-4-4-4-4--o||
|---------------------------|-5-5-5-5-5-5-5-----------------||


  F#5              E5   D5
  Gtr I
    PM--------|           PM------------------------|
  E S S S S S S Q  Q    E S S S S S S S S S S S S S S
|---------------------|-------------------------------|
|---------------------|-------------------------------|
|---------------------|-------------------------------|
|-4-4-4-4-4-4-4-4--6--|-7-7-7-7-7-7-7-7-7-7-7-7-7-7-7-|
|---------------------|-------------------------------|
|---------------------|-------------------------------|
|
| Gtr II
|   PM--------|           PM------------------------|
| E S S S S S S Q  Q    E S S S S S S S S S S S S S S
|---------------------|-------------------------------|
|---------------------|-------------------------------|
|---------------------|-7-----------------------------|
|-4-------------4--2--|-7-7-7-7-7-7-7-7-7-7-7-7-7-7-7-|
|-4-4-4-4-4-4-4-4--2--|-5-5-5-5-5-5-5-5-5-5-5-5-5-5-5-|
|-2-2-2-2-2-2-2-2--0--|-------------------------------|


  C#5           A/C#  C#5     A5            E5
    PM--------|                 PM--------|   PM--------|
  E S S S S S S E S S E S S   E S S S S S S E S S S S S S
|---------------------------|-------------------------------|
|---------------------------|-------------------------------|
|---------------6-6-6-4-4-4-|-------------------------------|
|-6-6-6-6-6-6-6-------------|-7-7-7-7-7-7-7-6-6-6-6-6-6-6---|
|---------------------------|-------------------------------|
|---------------------------|-------------------------------|
|
|   PM--------|   PM|   PM|     PM--------|   PM--------|
| E S S S S S S E S S E S S   E S S S S S S E S S S S S S
|---------------------------|-------------------------------|
|---------------------------|-------------------------------|
|-6-------------6-----6-----|---------------9---------------|
|-6-6-6-6-6-6-6-7-7-7-6-6-6-|-7-------------9-9-9-9-9-9-9---|
|-4-4-4-4-4-4-4-4-4-4-4-4-4-|-7-7-7-7-7-7-7-7-7-7-7-7-7-7---|
|---------------------------|-5-5-5-5-5-5-5-----------------|


  F#5                      E5   D5
      PM------------|             PM------------------------|
   E  S  S  S  S  S  S  Q  Q    E S S S S S S S S S S S S S S
|-----------------------------|-------------------------------|
|-----------------------------|-------------------------------|
|-----------------------------|-------------------------------|
|--4--4--4--4--4--4--4--4--6--|-7-7-7-7-7-7-7-7-7-7-7-7-7-7-7-|
|-----------------------------|-------------------------------|
|-----------------------------|-------------------------------|
|
|     PM------------|             PM------------------------|
|  E  S  S  S  S  S  S  Q  Q    E S S S S S S S S S S S S S S
|-----------------------------|-------------------------------|
|-----------------------------|-------------------------------|
|-11-------------------11--9--|-7-----------------------------|
|-11-11-11-11-11-11-11-11--9--|-7-7-7-7-7-7-7-7-7-7-7-7-7-7-7-|
|--9--9--9--9--9--9--9--9--7--|-5-5-5-5-5-5-5-5-5-5-5-5-5-5-5-|
|-----------------------------|-------------------------------|


  E5            C#m/E    E5      A5   G#m/C#
    PM--------|
  E S S S S S S  E  S  S E S S   H    H
|------------------------------|-----------|
|------------------------------|-----------|
|------------------------4-4-4-|-6----4----|
|-6-6-6-6-6-6-6--7--7--7-------|-----------|
|------------------------------|-----------|
|------------------------------|-----------|
|
|   PM--------|     PM|    PM|
| E S S S S S S  E  S  S E S S   H    H
|------------------------------|-----------|
|------------------------------|-----------|
|-9--------------9-------9-----|------4----|
|-9-9-9-9-9-9-9-11-11-11-9-9-9-|-7----6----|
|-7-7-7-7-7-7-7--7--7--7-7-7-7-|-7----4----|
|------------------------------|-5---------|


 Bridge
  F#5    A5      E5     F#5      A5    E5      A5     C#5
  Gtrs I, II
                 PM|       PM|                 PM|
  Q  E E Q  Q    E E Q  Q  E E   Q  Q  Q  Q    E E Q  Q  Q
|--------------|---------------|-------------|---------------|
|--------------|---------------|-------------|---------------|
|--------------|---------------|-------9--9--|--------6--6---|
|-4--4-4-7--7--|-----2--4------|-7--7--9--9--|-----7--6--6---|
|-4--4-4-7--7--|-2-2-2--4------|-7--7--7--7--|-7-7-7--4--4---|
|-2--2-2-5--5--|-0-0-0--2--2-4-|-5--5--------|-5-5-5---------|


  F#5    A5      E5              A5    E5      C#5    F#5
                 PM|       PM|
  Q  E E Q  Q    E E Q  Q  E E   Q  Q  Q  Q    E E Q  H
|--------------|---------------|-------------|-------------|
|--------------|---------------|-------------|-------------|
|--------------|---------------|-------9--9--|-6-6-6-------|
|-4--4-4-7--7--|-----2--4------|-7--7--9--9--|-6-6-6--4----|
|-4--4-4-7--7--|-2-2-2--4------|-7--7--7--7--|-4-4-4--4----|
|-2--2-2-5--5--|-0-0-0--2--2-4-|-5--5--------|--------2----|


   Pre-Chorus
    F#5             C#5               A5              E5
    Gtr I
    E   E   E   E   S S E   Q         E   E   E   E   S S E   Q
||----------------------------------|---------------------------------|
||o---------------------------------|---------------------------------|
||----------------------------------|-----6---6---6---4---------------|
||--4---7---7---7---7p6-------------|-7-----------------7-6---6-------|
||o---------------------7---7-------|---------------------------------|
||----------------------------------|---------------------------------|
|
|   Gtr II
|   PM-----------------------------------------------------------------
|   S S S S S S S S S S S S S S S S   S S S S S S S S S S S S S S S S
||----------------------------------|---------------------------------|
||o---------------------------------|---------------------------------|
||----------------------------------|---------------------------------|
||------------------6-6-6-6-6-6-6-6-|---------------------------------|
||o-4-4-4-4-4-4-4-4-4-4-4-4-4-4-4-4-|-7-7-7-7-7-7-7-7-2-2-2-2-2-2-2-2-|
||--2-2-2-2-2-2-2-2-----------------|-5-5-5-5-5-5-5-5-0-0-0-0-0-0-0-0-|


  F#5             C#5               A5              E5
  E   E   E   E   S S E   Q         E   E   E   E   S S E   Q
|---------------------------------|------------------------------------||
|---------------------------------|-----------------------------------o||
|---------------------------------|-----6---6---6---4------------------||
|-4---7---7---7---7p6-------------|-7-----------------7-6---6----------||
|---------------------7---7-------|-----------------------------------o||
|---------------------------------|------------------------------------||
|
|-----------------------------------------------------------------|
| S S S S S S S S S S S S S S S S   S S S S S S S S S S S S S S S S
|---------------------------------|------------------------------------||
|---------------------------------|-----------------------------------o||
|---------------------------------|------------------------------------||
|-----------------6-6-6-6-6-6-6-6-|------------------------------------||
|-4-4-4-4-4-4-4-4-4-4-4-4-4-4-4-4-|-7-7-7-7-7-7-7-7-2-2-2-2-2-2-2-2---o||
|-2-2-2-2-2-2-2-2-----------------|-5-5-5-5-5-5-5-5-0-0-0-0-0-0-0-0----||


 Chorus
  F#5   C#5     E5     A5       E5    C#5      F#5
                                                 PM----|   PM----|   PM|
  H     Q  Q    Q  E E Q  E E   Q  Q  E E Q    E S S S S E S S S S E S S
|-------------|---------------|--------------|---------------------------|
|-------------|---------------|--------------|---------------------------|
|-------------|---------------|-4--4---------|---------------------------|
|-4-----6--7--|-6--6---7--6-7-|-------7-6----|-4-4-4-4-4-4-4-4-4-4-4-4-4-|
|-------------|------7--------|-----------7--|---------------------------|
|-------------|---------------|--------------|---------------------------|
|
|                                                PM----|   PM----|   PM|
| Q  Q  Q  Q    Q  Q   Q  Q     Q  Q  Q   Q    E S S S S E S S S S E S S
|-------------|---------------|--------------|---------------------------|
|-------------|---------------|--------------|---------------------------|
|-------6--6--|--------2--2---|-------6---6--|---------------------------|
|-4--4--6--6--|-2--2---2--2---|-2--2--6---6--|-4---------4---------4-----|
|-4--4--4--4--|-2--2---0--0---|-2--2--4---4--|-4-4-4-4-4-4-4-4-4-4-4-4-4-|
|-2--2--------|-0--0----------|-0--0---------|-2-2-2-2-2-2-2-2-2-2-2-2-2-|


  F#5        C#5     E5         A5
  H          Q  Q    Q  E   E   Q  E E
|------------------|-------------------|
|------------------|-------------------|
|------------------|-------------------|
|-4----------6--7--|-6--6-------7--6-7-|
|------------------|--------7----------|
|------------------|-------------------|
|
|    PM----|            PM----|
| Q  S S S S Q  Q    Q  S S S S Q  Q
|------------------|-------------------|
|------------------|-------------------|
|------------6--6--|------------2--2---|
|-4----------6--6--|-2----------2--2---|
|-4--4-4-4-4-4--4--|-2--2-2-2-2-0--0---|
|-2--2-2-2-2-------|-0--0-0-0-0--------|


  E5         C#5      F#5
  Q  Q       E E Q    W
|-------------------|----------------------|
|-------------------|----------------------|
|-4--4--------------|----------------------|
|------------7-6----|-4--------------------|
|----------------7--|----------------------|
|-------------------|----------------------|
|
|    PM----|          PM------------|
| Q  S S S S Q   Q    S S S S S S S S H
|-------------------|----------------------|
|-------------------|----------------------|
|------------6---6--|----------------------|
|-2----------6---6--|-----------------4----|
|-2--2-2-2-2-4---4--|-4-4-4-4-4-4-4-4-4----|
|-0--0-0-0-0--------|-2-2-2-2-2-2-2-2-2----|


 Verse
  F#5              E5   D5
  Gtrs I, II
    PM--------|           PM------------------------|
  E S S S S S S Q  Q    E S S S S S S S S S S S S S S
|---------------------|-------------------------------|
|---------------------|-------------------------------|
|---------------------|-7-----------------------------|
|-4-------------4--2--|-7-7-7-7-7-7-7-7-7-7-7-7-7-7-7-|
|-4-4-4-4-4-4-4-4--2--|-5-5-5-5-5-5-5-5-5-5-5-5-5-5-5-|
|-2-2-2-2-2-2-2-2--0--|-------------------------------|


  C#5           A/C#  C#5     A5            C#5
    PM--------|   PM|   PM|     PM--------|   PM--------|
  E S S S S S S E S S E S S   E S S S S S S E S S S S S S
|---------------------------|-------------------------------|
|---------------------------|-------------------------------|
|-6-------------6-----6-----|---------------6---------------|
|-6-6-6-6-6-6-6-7-7-7-6-6-6-|-7-------------6-6-6-6-6-6-6---|
|-4-4-4-4-4-4-4-4-4-4-4-4-4-|-7-7-7-7-7-7-7-4-4-4-4-4-4-4---|
|---------------------------|-5-5-5-5-5-5-5-----------------|


  F#5              E5   D5
    PM--------|           PM------------------------|
  E S S S S S S Q  Q    E S S S S S S S S S S S S S S
|---------------------|-------------------------------|
|---------------------|-------------------------------|
|---------------------|-7-----------------------------|
|-4-------------4--2--|-7-7-7-7-7-7-7-7-7-7-7-7-7-7-7-|
|-4-4-4-4-4-4-4-4--2--|-5-5-5-5-5-5-5-5-5-5-5-5-5-5-5-|
|-2-2-2-2-2-2-2-2--0--|-------------------------------|


  E5            C#m/E    E5      A5   C#5
    PM--------|     PM|    PM|
  E S S S S S S  E  S  S E S S   H    H
|------------------------------|-----------|
|------------------------------|-----------|
|-9--------------9-------9-----|------6----|
|-9-9-9-9-9-9-9-11-11-11-9-9-9-|-7----6----|
|-7-7-7-7-7-7-7--7--7--7-7-7-7-|-7----4----|
|------------------------------|-5---------|


 Bridge
  F#5       A5        E5        F#5
  Gtr I
   Q   E  E  Q   Q     E  E  Q   Q   E  E
|-14--14-14-17--17--|-16-17-16--14--14----|
|-----------14--14--|-12-14-12---------17-|
|-11--11-11---------|-----------14--14-13-|
|-------------------|---------------------|
|-------------------|---------------------|
|-------------------|---------------------|
|
| Gtr II
|                      PM|           PM|
|  Q   E  E  Q   Q     E  E  Q   Q   E  E
|-------------------|---------------------|
|-------------------|---------------------|
|-------------------|---------------------|
|--4---4--4--7---7--|--------2---4--------|
|--4---4--4--7---7--|--2--2--2---4--------|
|--2---2--2--5---5--|--0--0--0---2---2--4-|


  A5        E5          A5            C#5
   Q   E  E  Q   E  E    E   E   E  E  H
|---------------------|-----------------------|
|-14--14-16-17--17s16-|-14--12--14-16-14------|
|-14--14-13-16--16s14-|-14-(14)-13-14-13------|
|---------------------|-----------------------|
|---------------------|-----------------------|
|---------------------|-----------------------|
|
|  Q   Q     Q   Q       Q       Q     Q  Q
|---------------------|-----------------------|
|---------------------|-----------------------|
|------------9---9----|----------------6--6---|
|--7---7-----9---9----|--7-------7-----6--6---|
|--7---7-----7---7----|--7-------7-----4--4---|
|--5---5--------------|--5-------5------------|


  F#5       A5        E5         F#5
   Q   E  E  Q   Q     Q    E  E  Q   E  E
|-14--14-14-17--17--|-16---17-16-14--14-16-|
|-----------14--14--|-12---14-12-----------|
|-11--11-11---------|------------14--14-13-|
|-------------------|----------------------|
|-------------------|----------------------|
|-------------------|----------------------|
|
|                      PM|            PM|
|  Q   E  E  Q   Q     E E  Q     Q   E  E
|-------------------|----------------------|
|-------------------|----------------------|
|-------------------|----------------------|
|--4---4--4--7---7--|-------2-----4--------|
|--4---4--4--7---7--|--2-2--2-----4--------|
|--2---2--2--5---5--|--0-0--0-----2---2--4-|


  A5      E5        C#5            F#5
   Q   Q   Q   Q     E  E  E  S  S  H
|-17--17--19--19--|-19-17-16-17p16-14----|
|---------12--12--|-12-------------------|
|-14--14----------|----14-13-14p13-11----|
|-----------------|----------------------|
|-----------------|----------------------|
|-----------------|----------------------|
|
|  Q   Q   Q   Q     E  E  Q        H
|-----------------|----------------------|
|-----------------|----------------------|
|----------9---9--|--6--6--6-------------|
|--7---7---9---9--|--6--6--6--------4----|
|--7---7---7---7--|--4--4--4--------4----|
|--5---5----------|-----------------2----|


 Pre-Chorus
  F#5             C#5               A5              E5
  E   E   E   E   S S E   Q         E   E   E   E   S S E   Q
|---------------------------------|---------------------------------|
|---------------------------------|---------------------------------|
|---------------------------------|-----6---6---6---4---------------|
|-4---7---7---7---7p6-------------|-7-----------------7-6---6-------|
|---------------------7---7-------|---------------------------------|
|---------------------------------|---------------------------------|
|
| PM-----------------------------------------------------------------
| S S S S S S S S S S S S S S S S   S S S S S S S S S S S S S S S S
|---------------------------------|---------------------------------|
|---------------------------------|---------------------------------|
|---------------------------------|---------------------------------|
|-----------------6-6-6-6-6-6-6-6-|---------------------------------|
|-4-4-4-4-4-4-4-4-4-4-4-4-4-4-4-4-|-7-7-7-7-7-7-7-7-2-2-2-2-2-2-2-2-|
|-2-2-2-2-2-2-2-2-----------------|-5-5-5-5-5-5-5-5-0-0-0-0-0-0-0-0-|


  F#5             C#5               A5              E5
  E   E   E   E   S S E   Q         E   E   E   E   S S E   Q
|---------------------------------|-----------------------------------|
|---------------------------------|-----------------------------------|
|---------------------------------|-----6---6---6---4-----------------|
|-4---7---7---7---7p6-------------|-7-----------------7-6---6---------|
|---------------------7---7-------|-----------------------------------|
|---------------------------------|-----------------------------------|
|
|-----------------------------------------------------------------|
| S S S S S S S S S S S S S S S S   S S S S S S S S S S S S S S S S
|---------------------------------|-----------------------------------|
|---------------------------------|-----------------------------------|
|---------------------------------|-----------------------------------|
|-----------------6-6-6-6-6-6-6-6-|-----------------------------------|
|-4-4-4-4-4-4-4-4-4-4-4-4-4-4-4-4-|-7-7-7-7-7-7-7-7-2-2-2-2-2-2-2-2---|
|-2-2-2-2-2-2-2-2-----------------|-5-5-5-5-5-5-5-5-0-0-0-0-0-0-0-0---|


  F#5             C#5               A5                 E5
  E   E   E   E   S S E   Q         E    E    E    E   S S E   Q
|---------------------------------|------------------------------------|
|-----7---7---7-------------------|-7---10---10---10---9p7-------------|
|-6---------------9p7-6---6-------|------6----6----6---4---9---9-------|
|-4---7---7---7---7p6-------------|-7--------------------7-6---6-------|
|---------------------7---7-------|------------------------------------|
|---------------------------------|------------------------------------|
|
| PM--------------------------------------------------------------------
| S S S S S S S S S S S S S S S S   S S  S S  S S  S S S S S S S S S S
|---------------------------------|------------------------------------|
|---------------------------------|------------------------------------|
|---------------------------------|------------------------------------|
|-----------------6-6-6-6-6-6-6-6-|------------------------------------|
|-4-4-4-4-4-4-4-4-4-4-4-4-4-4-4-4-|-7-7--7-7--7-7--7-7-2-2-2-2-2-2-2-2-|
|-2-2-2-2-2-2-2-2-----------------|-5-5--5-5--5-5--5-5-0-0-0-0-0-0-0-0-|


  F#5             C#5               A5                 E5
  E   E   E   E   S S E   Q         E    E    E    E   S S E   Q
|---------------------------------|--------------------------------------|
|-----7---7---7-------------------|-7---10---10---10---9p7---------------|
|-6---------------9p7-6---6-------|------6----6----6---4---9---9---------|
|-4---7---7---7---7p6-------------|-7--------------------7-6---6---------|
|---------------------7---7-------|--------------------------------------|
|---------------------------------|--------------------------------------|
|
|--------------------------------------------------------------------|
| S S S S S S S S S S S S S S S S   S S  S S  S S  S S S S S S S S S S
|---------------------------------|--------------------------------------|
|---------------------------------|--------------------------------------|
|---------------------------------|--------------------------------------|
|-----------------6-6-6-6-6-6-6-6-|--------------------------------------|
|-4-4-4-4-4-4-4-4-4-4-4-4-4-4-4-4-|-7-7--7-7--7-7--7-7-2-2-2-2-2-2-2-2---|
|-2-2-2-2-2-2-2-2-----------------|-5-5--5-5--5-5--5-5-0-0-0-0-0-0-0-0---|


 Chorus
  F#5    C#5     E5     A5       E5     C#5      F#5
                                                   PM----|   PM----|   PM|
  H      Q  Q    Q  E E Q  E E   Q  Q   E E Q    E S S S S E S S S S E S S
|--------------|---------------|---------------|---------------------------|
|--------------|---------------|---------------|---------------------------|
|--------------|---------------|-4--4----------|---------------------------|
|-4------6--7--|-6--6---7--6-7-|--------7-6----|-4-4-4-4-4-4-4-4-4-4-4-4-4-|
|--------------|------7--------|------------7--|---------------------------|
|--------------|---------------|---------------|---------------------------|
|
|                                                  PM----|   PM----|   PM|
| Q  E E Q  Q    Q  E E Q  Q     Q  E E Q   Q    E S S S S E S S S S E S S
|--------------|---------------|---------------|---------------------------|
|--------------|---------------|---------------|---------------------------|
|--------6--6--|--------2--2---|--------6---6--|---------------------------|
|-4--4-4-6--6--|-2--2-2-2--2---|-2--2-2-6---6--|-4---------4---------4-----|
|-4--4-4-4--4--|-2--2-2-0--0---|-2--2-2-4---4--|-4-4-4-4-4-4-4-4-4-4-4-4-4-|
|-2--2-2-------|-0--0-0--------|-0--0-0--------|-2-2-2-2-2-2-2-2-2-2-2-2-2-|


  F#5        C#5     E5         A5
  H          Q  Q    Q  E   E   Q  E E
|------------------|-------------------|
|------------------|-------------------|
|------------------|-------------------|
|-4----------6--7--|-6--6-------7--6-7-|
|------------------|--------7----------|
|------------------|-------------------|
|
|    PM----|            PM----|
| Q  S S S S Q  Q    Q  S S S S Q  Q
|------------------|-------------------|
|------------------|-------------------|
|------------6--6--|------------2--2---|
|-4----------6--6--|-2----------2--2---|
|-4--4-4-4-4-4--4--|-2--2-2-2-2-0--0---|
|-2--2-2-2-2-------|-0--0-0-0-0--------|


  E5         C#5      F#5
  Q  Q       E E Q    W
|-------------------|----------------------|
|-------------------|----------------------|
|-4--4--------------|----------------------|
|------------7-6----|-4--------------------|
|----------------7--|----------------------|
|-------------------|----------------------|
|
|    PM----|          PM------------|
| Q  S S S S Q   Q    S S S S S S S S H
|-------------------|----------------------|
|-------------------|----------------------|
|------------6---6--|----------------------|
|-2----------6---6--|-----------------4----|
|-2--2-2-2-2-4---4--|-4-4-4-4-4-4-4-4-4----|
|-0--0-0-0-0--------|-2-2-2-2-2-2-2-2-2----|


 Solos
  B5                     E5              F#5
   H.       S  S  S  S   E E H     E E    H      Q   E  S  S
|----------------------|---------------|---------------------|
|-12-------12h14p12p10-|-9-7-9----10-9-|-10----/12--10-12p10-|
|-11-------11h13p11p=9-|-9-8-9----11-9-|-11----/13--11-13p11-|
|----------------------|---------------|---------------------|
|----------------------|---------------|---------------------|
|----------------------|---------------|---------------------|
|
|  W                     W                W
|----------------------|---------------|---------------------|
|----------------------|---------------|---------------------|
|--4-------------------|---------------|---------------------|
|--4-------------------|-2-------------|--4------------------|
|--2-------------------|-2-------------|--4------------------|
|----------------------|-0-------------|--2------------------|


  C#5                 B5
   E  E  E  E  H       E  S  S  E  E  Q   E  E
|-12-14-12-11-12----|-11-12p11-----------------|
|--9-10--9-----9----|----------14-12-14--10-12-|
|----------11-------|-11-13p11-----------11-13-|
|-------------------|----------14-13-14--------|
|-------------------|--------------------------|
|-------------------|--------------------------|
|
|  W                   W
|-------------------|--------------------------|
|-------------------|--------------------------|
|--6----------------|--4-----------------------|
|--6----------------|--4-----------------------|
|--4----------------|--2-----------------------|
|-------------------|--------------------------|


  E5
   Q   E  E  S  S  S  S  S  S  S  S
|-----------------------------14-16-|
|-14--12-10----------14-15-17-15-17-|
|-14--13----13-14-16-14-16-18-------|
|--------16-14-16-18----------------|
|-----------------------------------|
|-----------------------------------|
|
|  W
|-----------------------------------|
|-----------------------------------|
|-----------------------------------|
|--2--------------------------------|
|--2--------------------------------|
|--0--------------------------------|


  F#5              C#5                       A5                      E5
   Q    S  S  S  S  S  S  S  S  S  S  S  S    S  S  S  S  S  S  S  S  S  S  S  S  Q
|-17\--------14-16s21p16----------------16-|-21p17----------------17-19p16------------|
|-19\-----14-------------17p16----16h17----|-------17----------17----------17---------|
|------14----------------------18----------|----------18----18----------------16------|
|------------------------------------------|-------------19----------------------18\--|
|------------------------------------------|------------------------------------------|
|------------------------------------------|------------------------------------------|
|
|  H                H                         H                       H
|------------------------------------------|------------------------------------------|
|------------------------------------------|------------------------------------------|
|-------------------6----------------------|------------------------------------------|
|--4----------------6----------------------|--7-----------------------2---------------|
|--4----------------4----------------------|--7-----------------------2---------------|
|--2---------------------------------------|--5-----------------------0---------------|


  B5          E5          F#5                       C#5               E5    F#5
   S  S  S  S  S  S  S  S  S  S  S  S  S  S  S  S    S  S  S  S  S  S  S  S  Q   Q
|-------10-14s19p16-------------14-17s21p17-------|-------12-16s21p16----16-----------|
|----12-------------17-------14-------------19----|----14-------------17----19\-------|
|-11-------------------16-14-------------------18-|-13--------------------------------|
|-------------------------------------------------|-----------------------------------|
|-------------------------------------------------|-----------------------------------|
|-------------------------------------------------|-----------------------------------|
|
|                                            PM|
|  Q           Q           Q           E     S  S    Q           E     E     Q   Q
|-------------------------------------------------|-----------------------------------|
|-------------------------------------------------|-----------------------------------|
|--4----------------------------------------------|--6--------------------------------|
|--4-----------2-----------4----------------------|--6-----------------2-----4--------|
|--2-----------2-----------4-----------------4--4-|--4-----------------2-----4--------|
|--------------0-----------2-----------------2--2-|--------------------0-----2--------|


 Breakdown
  B5                E5   F#5               A5
  Gtrs I, II
    PM------------|        PM------------|
  E S S E S S E S S Q    E S S E S S E S S Q
|----------------------|----------------------|
|----------------------|----------------------|
|-4--------------------|----------------------|
|-4-4-4-4-4-4-4-4-4-2--|-4-----------------7--|
|-2-2-2-2-2-2-2-2-2-2--|-4-4-4-4-4-4-4-4-4-7--|
|-------------------0--|-2-2-2-2-2-2-2-2-2-5--|


  C#5         E5            F#5
    PM------|   PM------|     PM--------------------|
  E S S E S S E S S E S S   E S S E S S E S S S S S S
|-------------------------|------------------------------|
|-------------------------|------------------------------|
|-6-----------------------|------------------------------|
|-6-6-6-6-6-6-2-----------|-4----------------------------|
|-4-4-4-4-4-4-2-2-2-2-2-2-|-4-4-4-4-4-4-4-4-4-4-4-4-4----|
|-------------0-0-0-0-0-0-|-2-2-2-2-2-2-2-2-2-2-2-2-2----|


  B5                E5   F#5               A5   C#5         D5 E5   F#5
    PM------------|        PM------------|        PM------|
  E S S E S S E S S Q    E S S E S S E S S Q    E S S E S S Q  Q     Q  H.
|----------------------|----------------------|-------------------|-----------|
|----------------------|----------------------|-------------------|-----------|
|-4--------------------|----------------------|-6-----------7--9--|-11--------|
|-4-4-4-4-4-4-4-4-4-2--|-4-----------------7--|-6-6-6-6-6-6-7--9--|-11--------|
|-2-2-2-2-2-2-2-2-2-2--|-4-4-4-4-4-4-4-4-4-7--|-4-4-4-4-4-4-5--7--|--9--------|
|-------------------0--|-2-2-2-2-2-2-2-2-2-5--|-------------------|-----------|


 Pre-Chorus
  F#5             C#5               A5              E5
  Gtr I
  E   E   E   E   S S E   Q         E   E   E   E   S S E   Q
|---------------------------------|---------------------------------|
|---------------------------------|---------------------------------|
|---------------------------------|-----6---6---6---4---------------|
|-4---7---7---7---7p6-------------|-7-----------------7-6---6-------|
|---------------------7---7-------|---------------------------------|
|---------------------------------|---------------------------------|
|
| Gtr II
| PM-----------------------------------------------------------------
| S S S S S S S S S S S S S S S S   S S S S S S S S S S S S S S S S
|---------------------------------|---------------------------------|
|---------------------------------|---------------------------------|
|---------------------------------|---------------------------------|
|-----------------6-6-6-6-6-6-6-6-|---------------------------------|
|-4-4-4-4-4-4-4-4-4-4-4-4-4-4-4-4-|-7-7-7-7-7-7-7-7-2-2-2-2-2-2-2-2-|
|-2-2-2-2-2-2-2-2-----------------|-5-5-5-5-5-5-5-5-0-0-0-0-0-0-0-0-|


  F#5             C#5               A5              E5
  E   E   E   E   S S E   Q         E   E   E   E   S S E   Q
|---------------------------------|-----------------------------------|
|---------------------------------|-----------------------------------|
|---------------------------------|-----6---6---6---4-----------------|
|-4---7---7---7---7p6-------------|-7-----------------7-6---6---------|
|---------------------7---7-------|-----------------------------------|
|---------------------------------|-----------------------------------|
|
|-----------------------------------------------------------------|
| S S S S S S S S S S S S S S S S   S S S S S S S S S S S S S S S S
|---------------------------------|-----------------------------------|
|---------------------------------|-----------------------------------|
|---------------------------------|-----------------------------------|
|-----------------6-6-6-6-6-6-6-6-|-----------------------------------|
|-4-4-4-4-4-4-4-4-4-4-4-4-4-4-4-4-|-7-7-7-7-7-7-7-7-2-2-2-2-2-2-2-2---|
|-2-2-2-2-2-2-2-2-----------------|-5-5-5-5-5-5-5-5-0-0-0-0-0-0-0-0---|


  F#5             C#5               A5                 E5
  E   E   E   E   S S E   Q         E    E    E    E   S S E   Q
|---------------------------------|------------------------------------|
|-----7---7---7-------------------|-7---10---10---10---9p7-------------|
|-6---------------9p7-6---6-------|------6----6----6---4---9---9-------|
|-4---7---7---7---7p6-------------|-7--------------------7-6---6-------|
|---------------------7---7-------|------------------------------------|
|---------------------------------|------------------------------------|
|
| PM--------------------------------------------------------------------
| S S S S S S S S S S S S S S S S   S S  S S  S S  S S S S S S S S S S
|---------------------------------|------------------------------------|
|---------------------------------|------------------------------------|
|---------------------------------|------------------------------------|
|-----------------6-6-6-6-6-6-6-6-|------------------------------------|
|-4-4-4-4-4-4-4-4-4-4-4-4-4-4-4-4-|-7-7--7-7--7-7--7-7-2-2-2-2-2-2-2-2-|
|-2-2-2-2-2-2-2-2-----------------|-5-5--5-5--5-5--5-5-0-0-0-0-0-0-0-0-|


  F#5             C#5               A5                 E5
  E   E   E   E   S S E   Q         E    E    E    E   S S E   Q
|---------------------------------|--------------------------------------|
|-----7---7---7-------------------|-7---10---10---10---9p7---------------|
|-6---------------9p7-6---6-------|------6----6----6---4---9---9---------|
|-4---7---7---7---7p6-------------|-7--------------------7-6---6---------|
|---------------------7---7-------|--------------------------------------|
|---------------------------------|--------------------------------------|
|
|--------------------------------------------------------------------|
| S S S S S S S S S S S S S S S S   S S  S S  S S  S S S S S S S S S S
|---------------------------------|--------------------------------------|
|---------------------------------|--------------------------------------|
|---------------------------------|--------------------------------------|
|-----------------6-6-6-6-6-6-6-6-|--------------------------------------|
|-4-4-4-4-4-4-4-4-4-4-4-4-4-4-4-4-|-7-7--7-7--7-7--7-7-2-2-2-2-2-2-2-2---|
|-2-2-2-2-2-2-2-2-----------------|-5-5--5-5--5-5--5-5-0-0-0-0-0-0-0-0---|


   Out-Chorus
    F#5    C#5     E5     A5
    H      Q  Q    Q  E E Q  E E
||---------------|---------------|
||o--------------|---------------|
||---------------|---------------|
||--4------6--7--|-6--6---7--6-7-|
||o--------------|------7--------|
||---------------|---------------|
|
|   Q  E E Q  Q    Q  E E Q  Q
||---------------|---------------|
||o--------------|---------------|
||---------6--6--|--------2--2---|
||--4--4-4-6--6--|-2--2-2-2--2---|
||o-4--4-4-4--4--|-2--2-2-0--0---|
||--2--2-2-------|-0--0-0--------|


  E5     C#5      F#5
                    PM----|   PM----|   PM|
  Q  Q   E E Q    E S S S S E S S S S E S S
|---------------|------------------------------||
|---------------|-----------------------------o||
|-4--4----------|------------------------------||
|--------7-6----|-4-4-4-4-4-4-4-4-4-4-4-4-4----||
|------------7--|-----------------------------o||
|---------------|------------------------------||
|
|                   PM----|   PM----|   PM|
| Q  E E Q   Q    E S S S S E S S S S E S S
|---------------|------------------------------||
|---------------|-----------------------------o||
|--------6---6--|------------------------------||
|-2--2-2-6---6--|-4---------4---------4--------||
|-2--2-2-4---4--|-4-4-4-4-4-4-4-4-4-4-4-4-4---o||
|-0--0-0--------|-2-2-2-2-2-2-2-2-2-2-2-2-2----||


  N.C.
  H               Q       Q         Q       E   E   Q       E   E
|---------------------------------|---------------------------------|
|---------------------------------|---------------------------------|
|---------------------------------|---------------------------------|
|-4---------------6-------7-------|-6-------6-------7-------6---7---|
|---------------------------------|-------------7-------------------|
|---------------------------------|---------------------------------|
|
| PM-----------------------------------------------------------------
| S S S S S S S S S S S S S S S S   S S S S S S S S S S S S S S S S
|---------------------------------|---------------------------------|
|---------------------------------|---------------------------------|
|---------------------------------|---------------------------------|
|---------------------------------|---------------------------------|
|-----------------4-4-4-4-4-4-4-4-|-----------------0-0-0-0-0-0-0-0-|
|-2-2-2-2-2-2-2-2-----------------|-0-0-0-0-0-0-0-0-----------------|


                                    F#5
                                      PM----|   PM----|   PM|
  Q       Q       E   E   Q         E S S S S E S S S S E S S
|---------------------------------|------------------------------|
|---------------------------------|------------------------------|
|-4-------4-----------------------|------------------------------|
|-----------------7---6-----------|-4-4-4-4-4-4-4-4-4-4-4-4-4----|
|-------------------------7-------|------------------------------|
|---------------------------------|------------------------------|
|
|-------------------------------|     PM----|   PM----|   PM|
| S S S S S S S S S S S S S S S S   E S S S S E S S S S E S S
|---------------------------------|------------------------------|
|---------------------------------|------------------------------|
|---------------------------------|------------------------------|
|---------------------------------|------------------------------|
|-----------------4-4-4-4-4-4-4-4-|-4---------4---------4--------|
|-0-0-0-0-0-0-0-0-----------------|-2-2-2-2-2-2-2-2-2-2-2-2-2----|


  F#5        C#5     E5         A5
  H          Q  Q    Q  E   E   Q  E E
|------------------|-------------------|
|------------------|-------------------|
|------------------|-------------------|
|-4----------6--7--|-6--6-------7--6-7-|
|------------------|--------7----------|
|------------------|-------------------|
|
|    PM----|            PM----|
| Q  S S S S Q  Q    Q  S S S S Q  Q
|------------------|-------------------|
|------------------|-------------------|
|------------6--6--|------------2--2---|
|-4----------6--6--|-2----------2--2---|
|-4--4-4-4-4-4--4--|-2--2-2-2-2-0--0---|
|-2--2-2-2-2-------|-0--0-0-0-0--------|


  E5         C#5      F#5
  Q  Q       E E Q    W
|-------------------|----------------------|
|-------------------|----------------------|
|-4--4--------------|----------------------|
|------------7-6----|-4--------------------|
|----------------7--|----------------------|
|-------------------|----------------------|
|
|    PM----|          PM------------|
| Q  S S S S Q   Q    S S S S S S S S H
|-------------------|----------------------|
|-------------------|----------------------|
|------------6---6--|----------------------|
|-2----------6---6--|-----------------4----|
|-2--2-2-2-2-4---4--|-4-4-4-4-4-4-4-4-4----|
|-0--0-0-0-0--------|-2-2-2-2-2-2-2-2-2----|


               F#5
                |--3--|      |--3--|
  +W            E  E  E  Q   E  E  E  Q     W          W
|------------|----------------------------|----------|------*|
|------------|----------------------------|----------|------*|
|------------|-11-11-11-11--11-11-11-11\--|----------|------*|
|-(4)--------|-11-11-11-11--11-11-11-11\--|----------|------*|
|------------|--9--9--9--9---9--9--9--9\--|----------|------*|
|------------|----------------------------|----------|------*|
|
|               |--3--|      |--3--|
| +W            E  E  E  Q   E  E  E  Q     W          W
|------------|----------------------------|----------|------*|
|------------|----------------------------|----------|------*|
|------------|-11-11-11-11--11-11-11-11\--|----------|------*|
|-(4)--------|-11-11-11-11--11-11-11-11\--|----------|------*|
|-(4)--------|--9--9--9--9---9--9--9--9\--|----------|------*|
|-(2)--------|----------------------------|----------|------*|



Duration Legend
---------------
W - whole; H - half; Q - quarter; E - 8th; S - 16th; T - 32nd; X - 64th; a - acciaccatura
+ - note tied to previous; . - note dotted; .. - note double dotted
Uncapitalized letters represent notes that are staccato (1/2 duration)
Irregular groupings are notated above the duration line
Duration letters will always appear directly above the note/fret number it represents the
duration for.  Duration letters with no fret number below them represent rests.  Multi-
bar rests are notated in the form Wxn, where n is the number of bars to rest for.  Low
melody durations appear below the staff

Tablature Legend
----------------
 h   - hammer-on
 p   - pull-off
 b   - bend
 pb  - pre-bend
 r   - bend release (if no number after the r, then release immediately)
 /\  - slide into or out of (from/to "nowhere")
 s   - legato slide
 S   - shift slide
 - natural harmonic
[n]  - artificial harmonic
n(n) - tapped harmonic
 ~   - vibrato
 tr  - trill
 T   - tap
 TP  - trem. picking
 PM  - palm muting
\n/  - tremolo bar dip; n = amount to dip
 \n  - tremolo bar down
 n/  - tremolo bar up
/n\  - tremolo bar inverted dip
 =   - hold bend; also acts as connecting device for hammers/pulls
 <> - volume swell (louder/softer)
 x   - on rhythm slash represents muted slash
 o   - on rhythm slash represents single note slash

Misc Legend
-----------
 |  - bar
||  - double bar
||o - repeat start
o|| - repeat end
*|  - double bar (ending)
 :  - bar (freetime)
 $  - Segno
 &  - Coda
Tempo markers -  = BPM(8/16=s8/s16), where s8 = swing 8ths, s16 = swing 16ths


            
            
Suggest correction
Creating personal tab
Creating personal tab
You can edit any tab online and save it as your Personal.

You can edit, replace or remove any tab part or add personal notes – all changes will be seen only by you.

Personal tabs can be accessed anytime from any device, even offline.
Learn more »
Give kudos to tab author, rate the tab!
1 2 3 4 5
comments
print report bad tab
guest
You may want to rate the tab now too:
select rating
Wanna post a correction for this tab? Suggest correction