Oops, an error
Loading. Please wait.

Iron bass

version 2
version 2

Whole song

Interactive

1,625 views 1 this week
no commentswrite comment
1 2 3 4 5
3 more votes to show rating
add to favorites
×
Save as Personal and add changes to this tab that will be seen only by you. Learn more ›
×
You can save this tab as Personal to edit and correct it or add notes. All changes will be seen only by you. Learn more »
launch autoscroll
font size
0
reset
guitar tuner
edit
Autoscroll
slow
fast
+/-
esc
set tempo
stop
Author
     F5                                                                       
     Q    S S S S Q    S S S S    Q    Q    Q    E  E     E  H.           E   
G||----------------------------|-----------------------|--------------------
D||----------------------------|-----------------------|--------------------
A||---------------2----2-2-2-2-|-------3----3----3--3--|--5-----------------
E||--0----0-0-0-0--------------|--3--------------------|--------------------


  H.           E  E     E  H.           E     W                 
---------------------|---------------------|-------------------|
---------------------|---------------------|-------------------|
---------------------|---------------------|-------------------|
---------------3--2--|--0------------------|-------------------|


  E  E  E  E  H           E  E  E  E  H           E  E  E  E  E  E  E  E   
-----------------------|-----------------------|--------------------------|
-----------------------|-----------------------|--------------------------|
--5-----5-----5--------|--7-----7--------------|--------------2--2--2--2--|
-----------5-----------|-----------7--0--------|--0--0--0--0--------------|


  E  E  E  E  E  E  E  E     E  E  E  E  E  E  E  E   
--------------------------|--------------------------|
--------------------------|--------------------------|
--2--3--3--3--3--3--3--3--|--5--L--5-----5--L--5--5--|
--------------------------|-----------5--------------|


  E  E  E  E  E  E  E  E     E  E  E  E  E  E  E  E   
--------------------------|--------------------------|
--------------------------|--------------------------|
--7--L--7-----------------|--------------2--2--2--2--|
-----------7--0--0--0--0--|--0--0--0--0--------------|


  E  E  E  E  E  E  E  E     E  E  E  E  E  E  E  E   
--------------------------|--------------------------|
--------------------------|--------------------------|
--2--3--3--3--3--3--3--3--|--5--L--5-----2--2--2--2--|
--------------------------|-----------5--------------|


  E  E  E  E  E  E  E  E     E  E  E  E  E  E  E  E   
--------------------------|--------------------------|
--------------------------|--------------------------|
--7--L--7-----------------|--------------2--2--2--2--|
-----------7--0--0--0--0--|--0--0--0--0--------------|


  E  E  E  E  E  E  E  E     E  E  E  E  E  E  E  E   
--------------------------|--------------------------|
--------------------------|--------------------------|
--2--3--3--3--3--3--3--3--|--5--L--5-----5--L--5--5--|
--------------------------|-----------5--------------|


  E  E  E  E  E  E  E  E     E  E  E  E  E  E  E  E   
--------------------------|--------------------------|
--------------------------|--------------------------|
--7--L--7-----------------|--------------2--2--2--2--|
-----------7--0--0--0--0--|--0--0--0--0--------------|


  E  E  E  E  E  E  E  E     E  E  E  E  E  E  E  E   
--------------------------|--------------------------|
--------------------------|--------------------------|
--2--3--3--3--3--3--3--3--|--5--L--5-----2--2--2--2--|
--------------------------|-----------5--------------|


  E  E  E  E  E  E  E  E       E  S S E  S S E  S S E  S S  
--------------------------||-------------------------------|
--------------------------||*------------------------------|
--7--L--7-----------------||-------------------------------|
-----------7--0--0--0--0--||*--0--0-0-0--0-0-0--0-0-0--0-0-|


  E  S S E  S S E  S S E  S S    E  S S E  S S E  S S E  S S  
------------------------------|------------------------------|
------------------------------|------------------------------|
------------------------------|------------------------------|
--0--0-0-0--0-0-0--0-0-0--0-2-|--3--3-3-3--3-3-5--5-5-5--5-5-|


  E  S S E  S S E  S S E  E     E  S S E  S S E  S S E  S S  
-----------------------------|------------------------------|
-----------------------------|------------------------------|
--3--3-3-3--3-3-3--3-3-5--5--|------------------------------|
-----------------------------|--0--0-0-0--0-0-0--0-0-0--0-0-|


  E  S S E  S S E  S S E  S S    E  S S E  S S E  S S E  S S  
------------------------------|------------------------------|
------------------------------|------------------------------|
------------------------------|------------------------------|
--0--0-0-0--0-0-0--0-0-0--0-2-|--3--3-3-3--3-3-5--5-5-5--5-5-|


  E  E  E  E  E  E  E  E       E  S S E  S S E  S S E  S S  
---------------------------||------------------------------|
--------------------------*||------------------------------|
--5--5--5--5--2--2--5--5---||------------------------------|
--------------------------*||--3--3-3-3--3-3-5--5-5-5--5-5-|

  E  E  E  E  H           E  E  E  E  E  E  E  E     E  E  E  E  E  E  E  E   
-----------------------|--------------------------|-------------------------
-----------------------|--------------------------|-------------------------
-----------------------|--------------2--L--2--2--|--2--3--3--L--3--L--3--3-
--7--7--7--7--7--------|--0--L--0--0--------------|-------------------------


  E  E  E  E  E  E  E  E     E  E  E  E  E  E  E  E   
--------------------------|--------------------------|
--------------------------|--------------------------|
--5--L--5-----5--L--5--5--|--7--L--7-----------------|
-----------5--------------|-----------7--0--0--0--0--|


  E  E  E  E  E  E  E  E     E  E  E  E  E  E  E  E   
--------------------------|--------------------------|
--------------------------|--------------------------|
--------------2--L--2--2--|--2--3--3--L--3--L--3--3--|
--0--L--0--0--------------|--------------------------|


  E  E  E  E  E  E  E  E     E  E  E  E  E  E  E  E   
--------------------------|--------------------------|
--------------------------|--------------------------|
--5--L--5-----2--2--2--2--|--7--L--7-----------------|
-----------5--------------|-----------7--0--0--0--0--|


  E  E  E  E  E  E  E  E     E  E  E  E  E  E  E  E   
--------------------------|--------------------------|
--------------------------|--------------------------|
--------------5--L--5--5--|--------------------------|
--3--L--3--3--------------|--3--2--0-----0--L--0--0--|


  E  E  E  E  E  E  E  E     E  E  E  E  E  E   E  E   
--------------------------|---------------------------|
--------------------------|---------------------------|
--2-----2--0--2--L--5--L--|--7-----7--5--7--L--10--L--|
--------------------------|---------------------------|


  E  E  E  E  E  E  E  E     E  E  E  E  E  E  E  E   
--------------------------|--------------------------|
--------------------------|--------------------------|
--------------2--L--2--2--|--------------5--L--5--5--|
--3--L--3--3--------------|--0--2--3-----------------|


  E  E  E  E  E  E  E  E     Q    E  E  H           E  S E  S E  S E  S E  E   
--------------------------|----------------------|--------------------------
--------------------------|----------------------|--------------------------
--5--L--5--5--2--L--5--L--|----------------------|-------------------------0
--------------------------|--0----0--0--0--------|--0--0-0--0-0--0-0--0-0---


  E  S E  S E  S E  S E  S S    E  S E  S S S E  S E  S E   
-----------------------------|-----------------------------|
-----------------------------|-----------------------------|
--2--2-2--2-2--2-2--2-2--2-2-|-----------------------------|
-----------------------------|--3--3-3--3-3-3-5--5-5--5-5--|


  E  S S E  S S E  S S S S E     E  S E  S E  S E  S E  E   
------------------------------|----------------------------|
------------------------------|----------------------------|
------------------------------|-------------------------0--|
--0--0-0-0--0-0-0--0-0-0-0-3--|--0--0-0--0-0--0-0--0-0-----|


  E  S E  S E  S E  S E  S S    E  S S E  E  S S E  E  E   
-----------------------------|----------------------------|
-----------------------------|----------------------------|
--2--2-2--2-2--2-2--2-2--2-2-|----------------------------|
-----------------------------|--3--3-3-3--3--2-2-2--2--2--|


  S S S S S S S S S S S S S S S S    E  E  E  E  E  E  E  E   
----------------------------------|--------------------------|
----------------------------------|--------------------------|
----------------------------------|--5--5--5--5--5--5--5--5--|
--0-0-0-0-0-0-0-0-0-0-0-0-0-0-0-0-|--------------------------|


  E  E  E  E  E  E  E  E     E  S S S S S S E  E  E  E   
--------------------------|-----------------------------|
--------------------------|-----------------------------|
--------------------------|-----------------5--5--5--5--|
--3--3--3--3--3--3--3--3--|--0--0-0-0-0-0-0-------------|


  E  E  E  E  E  E  E  E     E  S E  S E  E  S E  S E   
--------------------------|----------------------------|
--------------------------|----------------------------|
--------------------------|--5--5-5--5-5--5--5-5--5-5--|
--3--3--3--3--3--3--3--3--|----------------------------|


  E  S S E  S S E  S S E  S S    E  S S E  S S E  S S E  S S  
------------------------------|------------------------------|
------------------------------|------------------------------|
------------------------------|--3--3-3-3--3-3---------------|
--5--5-5-5--5-5-5--5-5-5--5-5-|----------------3--3-3-3--3-3-|


  S S S S S S S S S S S S S S S S    E  E  E  E  E  Q    E   
----------------------------------|-------------------------|
----------------------------------|-------------------------|
--2-2-2-2-2-2-2-2-2-2-2-2-2-2-2-2-|--2--2--2--2--2--2-------|
----------------------------------|-------------------------|


    E  S S E  S S E  S S E  S S    E  S S E  S S E  S S E  S S  
|-------------------------------|------------------------------|
|*------------------------------|------------------------------|
|-------------------------------|------------------------------|
|*--0--0-0-0--0-0-0--0-0-0--0-0-|--0--0-0-0--0-0-0--0-0-0--0-2-|


  E  S S E  S S E  S S E  S S    E  S S E  S S E  S S E  E   
------------------------------|-----------------------------|
------------------------------|-----------------------------|
------------------------------|--3--3-3-3--3-3-3--3-3-5--5--|
--3--3-3-3--3-3-5--5-5-5--5-5-|-----------------------------|


  E  S S E  S S E  S S E  S S    E  S S E  S S E  S S E  S S  
------------------------------|------------------------------|
------------------------------|------------------------------|
------------------------------|------------------------------|
--0--0-0-0--0-0-0--0-0-0--0-0-|--0--0-0-0--0-0-0--0-0-0--0-2-|


  E  S S E  S S E  S S E  S S    E  E  E  E  E  E  E  E     
------------------------------|---------------------------||
------------------------------|--------------------------*||
------------------------------|--5--5--5--5--2--2--5--5---||
--3--3-3-3--3-3-5--5-5-5--5-5-|--------------------------*||


  E  S S E  S S E  S S E  S S    E  S S E  S S E  S S E  S S  
------------------------------|------------------------------|
------------------------------|------------------------------|
--3--3-3-3--3-3---------------|--5--5-5-5--5-5-5--5-5-5--5-5-|
----------------3--3-3-3--3-3-|------------------------------|


  E  S S E  S S E  S S E  S S    E  S S E  S S E  S S E  S S  
------------------------------|------------------------------|
------------------------------|------------------------------|
--3--3-3-3--3-3-3--3-3-3--3-3-|--3--3-3-3--3-3-3--3-3-3--3-3-|
------------------------------|------------------------------|


  E  S S E  S S E  S S E  S S    E  E  E  E  H         
------------------------------|-----------------------|
------------------------------|-----------------------|
------------------------------|-----------------------|
--3--3-3-3--3-3-5--5-5-5--5-5-|--7--7--7--7--7--------|


  E  E  E  E  E  E  E  E     E  E  E  E  E  E  E  E   
--------------------------|--------------------------|
--------------------------|--------------------------|
--------------2--L--2--2--|--2--3--3--L--3--L--3--3--|
--0--L--0--0--------------|--------------------------|


  E  E  E  E  E  E  E  E     E  E  E  E  E  E  E  E   
--------------------------|--------------------------|
--------------------------|--------------------------|
--5--L--5-----5--L--5--5--|--7--L--7-----------------|
-----------5--------------|-----------7--0--0--0--0--|


  E  E  E  E  E  E  E  E     E  E  E  E  E  E  E  E   
--------------------------|--------------------------|
--------------------------|--------------------------|
--------------2--L--2--2--|--2--3--3--L--3--L--3--3--|
--0--L--0--0--------------|--------------------------|


  E  E  E  E  E  E  E  E     E  E  E  E  E  E  E  E   
--------------------------|--------------------------|
--------------------------|--------------------------|
--5--L--5-----2--2--2--2--|--7--L--7-----------------|
-----------5--------------|-----------7--0--0--0--0--|


  E  E  E  E  E  E  E  E     E  E  E  E  E  E  E  E   
--------------------------|--------------------------|
--------------------------|--------------------------|
--------------2--L--2--2--|--2--3--3--L--3--L--3--3--|
--0--L--0--0--------------|--------------------------|

  E  E  E  E  E  E  E  E     E  E  E  E  E  E  E  E   
--------------------------|--------------------------|
--------------------------|--------------------------|
--5--L--5-----5--L--5--5--|--7--L--7-----------------|
-----------5--------------|-----------7--0--0--0--0--|


  E  E  E  E  E  E  E  E     E  E  E  E  E  E  E  E   
--------------------------|--------------------------|
--------------------------|--------------------------|
--------------2--L--2--2--|--2--3--3--L--3--L--3--3--|
--0--L--0--0--------------|--------------------------|


  E  E  E  E  E  E  E  E     E  E  E  E  H           W                 
--------------------------|-----------------------|-------------------|
--------------------------|-----------------------|-------------------|
--5--L--5-----2--2--2--2--|--7--L--7--------------|-------------------|
-----------5--------------|-----------7--0--------|--L----------------|


  W                   W                                                         
-------------------|-------------------|-------------------|----------------
-------------------|-------------------|-------------------|----------------
-------------------|-------------------|-------------------|----------------
--L----------------|--L----------------|-------------------|----------------


-------------------|-------------------|-------------------|----------------
-------------------|-------------------|-------------------|----------------
-------------------|-------------------|-------------------|----------------
-------------------|-------------------|-------------------|----------------


-------------------|-------------------|-------------------|----------------
-------------------|-------------------|-------------------|----------------
-------------------|-------------------|-------------------|----------------
-------------------|-------------------|-------------------|----------------


-------------------|-------------------|-------------------|----------------
-------------------|-------------------|-------------------|----------------
-------------------|-------------------|-------------------|----------------
-------------------|-------------------|-------------------|----------------

-------------------|-------------------|-------------------|----------------
-------------------|-------------------|-------------------|----------------
-------------------|-------------------|-------------------|----------------
-------------------|-------------------|-------------------|----------------



  E  S S E  S S E  S S E  S S    E  S S E  S S E  S S E  S S  
------------------------------|------------------------------|
------------------------------|------------------------------|
------------------------------|------------------------------|
--2--2-2-2--2-2-2--2-2-2--2-2-|--2--2-2-2--2-2-2--2-2-2--2-2-|


  E  S S E  S S E  S S E  S S    E  S S E  S S S S S S S S S S  
------------------------------|--------------------------------|
------------------------------|--------------------------------|
------------------------------|--4--4-4-4--4-4-7-7-4-4-7-7-4-4-|
--5--5-5-5--5-5-5--5-5-5--5-5-|--------------------------------|


  E  S S E  S S E  S S E  S S    E  S S E  S S E  S S E  S S  
------------------------------|------------------------------|
------------------------------|------------------------------|
------------------------------|------------------------------|
--2--2-2-2--2-2-2--2-2-2--2-2-|--2--2-2-2--2-2-2--2-2-2--2-2-|


  E  S S E  S S E  S S E  S S    E  S S S S S S Q    Q     
------------------------------|---------------------------|
------------------------------|---------------------------|
------------------------------|--2--2-2-2-2-2-2-----------|
--5--5-5-5--5-5-5--5-5-5--5-5-|-----------------0----2----|


  E  S S E  S S E  S S E  S S    E  S S E  S S E  S S E  S S  
------------------------------|------------------------------|
------------------------------|------------------------------|
------------------------------|------------------------------|
--2--2-2-2--2-2-2--2-2-2--2-2-|--2--2-2-2--2-2-2--2-2-2--2-2-|


  E  S S E  S S E  S S E  S S    E  S S E  S S S S S S S S S S  
------------------------------|--------------------------------|
------------------------------|--------------------------------|
------------------------------|--4--4-4-4--4-4-7-7-4-4-7-7-4-4-|
--5--5-5-5--5-5-5--5-5-5--5-5-|--------------------------------|


  E  S S E  S S E  S S E  S S    E  S S E  S S E  S S E  S S  
------------------------------|------------------------------|
------------------------------|------------------------------|
------------------------------|------------------------------|
--2--2-2-2--2-2-2--2-2-2--2-2-|--2--2-2-2--2-2-2--2-2-2--2-2-|


  E  S S E  S S E  S S E  S S    E  S S S S S S Q    Q     
------------------------------|---------------------------|
------------------------------|---------------------------|
------------------------------|--2--2-2-2-2-2-2-----------|
--5--5-5-5--5-5-5--5-5-5--5-5-|-----------------0----2----|


  E  S S E  S S E  S S E  S S    E  S S E  S S E  S S E  S S  
------------------------------|------------------------------|
------------------------------|------------------------------|
------------------------------|------------------------------|
--2--2-2-2--2-2-2--2-2-2--2-2-|--2--2-2-2--2-2-2--2-2-2--2-2-|


  E  S S E  S S E  S S E  S S    E  S S E  S S S S S S S S S S  
------------------------------|--------------------------------|
------------------------------|--------------------------------|
------------------------------|--4--4-4-4--4-4-7-7-4-4-7-7-4-4-|
--5--5-5-5--5-5-5--5-5-5--5-5-|--------------------------------|


  E  S S E  S S E  S S E  S S    E  S S E  S S E  S S E  S S  
------------------------------|------------------------------|
------------------------------|------------------------------|
------------------------------|------------------------------|
--2--2-2-2--2-2-2--2-2-2--2-2-|--2--2-2-2--2-2-2--2-2-2--2-2-|


  E  S S E  S S E  S S E  S S    E  S S E  S S S S S S S S S S  
------------------------------|--------------------------------|
------------------------------|--------------------------------|
------------------------------|--2--2-2-2--2-2-2-2-2-2-2-2-2-2-|
--5--5-5-5--5-5-5--5-5-5--5-5-|--------------------------------|


  E  S S E  S S E  S S E  S S    E  S S E  S S E  S S E  S S  
------------------------------|------------------------------|
------------------------------|------------------------------|
------------------------------|--4--4-4-4--4-4-4--4-4-4--4-4-|
--2--2-2-2--2-2-2--2-2-2--2-2-|------------------------------|


  E  S S E  S S E  S S E  S S    E  S S E  S S S S S S S S S S  
------------------------------|--------------------------------|
------------------------------|--------------------------------|
--2--2-2-2--2-2-2--2-2-2--2-2-|--------------------------------|
------------------------------|--2--2-2-2--2-2-0-0-0-0-0-0-0-0-|


  E  S S E  S S E  S S E  S S    E  S S E  S S S S E  S S E   
------------------------------|------------------------------|
------------------------------|------------------------------|
------------------------------|------------------------------|
--0--0-0-0--0-0-0--0-0-0--0-2-|--3--3-3-3--3-3-7-7-3--7-7-3--|


  E  S S E  S S S S S S S S S S    Q    H.            
--------------------------------|--------------------|
--------------------------------|--------------------|
--5--5-5-5--5-5-2-2-2-2-5-5-5-5-|--------------------|
--------------------------------|--0-----------------|


  E  E  E  E  E  E  E  E     E  E  E  E  E  E  E  E   
--------------------------|--------------------------|
--------------------------|--------------------------|
--------------2--L--2--2--|--2--3--3--L--3--L--3--3--|
--0--L--0--0--------------|--------------------------|
--------------------------|--------------------------|


  E  E  E  E  E  E  E  E     E  E  E  E  E  E  E  E   
--------------------------|--------------------------|
--------------------------|--------------------------|
--5--L--5-----5--L--5--5--|--7--L--7-----------------|
-----------5--------------|-----------7--0--0--0--0--|


  E  E  E  E  E  E  E  E     E  E  E  E  E  E  E  E   
--------------------------|--------------------------|
--------------------------|--------------------------|
--------------2--L--2--2--|--2--3--3--L--3--L--3--3--|
--0--L--0--0--------------|--------------------------|


  E  E  E  E  E  E  E  E     E  E  E  E  E  E  E  E   
--------------------------|--------------------------|
--------------------------|--------------------------|
--5--L--5-----2--2--2--2--|--7--L--7-----------------|
-----------5--------------|-----------7--0--0--0--0--|


  E  E  E  E  E  E  E  E     E  E  E  E  E  E  E  E   
--------------------------|--------------------------|
--------------------------|--------------------------|
--------------2--L--2--2--|--2--3--3--L--3--L--3--3--|
--0--L--0--0--------------|--------------------------|


  E  E  E  E  E  E  E  E     E  E  E  E  E  E  E  E   
--------------------------|--------------------------|
--------------------------|--------------------------|
--5--L--5-----5--L--5--5--|--7--L--7-----------------|
-----------5--------------|-----------7--0--0--0--0--|


  E  E  E  E  E  E  E  E     E  E  E  E  E  E  E  E   
--------------------------|--------------------------|
--------------------------|--------------------------|
--------------2--L--2--2--|--2--3--3--L--3--L--3--3--|
--0--L--0--0--------------|--------------------------|


  E  E  E  E  E  E  E  E     E  E  E  E     E  S S E  S S E  S S E  S S  
--------------------------|--------------|------------------------------|
--------------------------|--------------|------------------------------|
--5--L--5-----2--2--2--2--|--7--L--7-----|------------------------------|
-----------5--------------|-----------7--|--0--0-0-0--0-0-0--0-0-0--0-0-|


  E  S S E  S S E  S S E  S S    E  Q.        E  S S E  S S E  S S E  S S  
------------------------------|------------|------------------------------|
------------------------------|------------|------------------------------|
------------------------------|------------|------------------------------|
--0--0-0-0--0-0-0--0-0-0--0-0-|--0--0------|--0--0-0-0--0-0-0--0-0-0--0-0-|


  E  S S E  S S E  S S E  S S    E  S S E  S S E  Q.        W                 
------------------------------|--------------------------|------------------
------------------------------|--------------------------|------------------
------------------------------|-------------------5------|--7---------------
--3--3-3-3--3-3-3--3-3-3--3-3-|--5--5-5-5--5-5-5---------|------------------


-------------------||
-------------------||
-------------------||
-------------------||





Duration Legend
---------------
W - whole
H - half
Q - quarter
E - 8th
S - 16th
T - 32nd
X - 64th
. - note dotted
|-n-|  - n-tuplets


Tablature Legend
----------------
L - tied note
x - dead note
g - grace note
(n) - ghost note
> - accentuded note
NH - natural harmonic
AH - artificial harmonic
TH - tapped harmonic
SH - semi harmonic
PH - pitch harmonic
h - hammer on
p - pull off
b - bend
br - bendRelease
pb - preBend
pbr - preBendRelease
brb - bendReleaseBend
\n/ - tremolo bar dip
\n - tremolo bar dive
-/n - tremolo bar Release up
/n\ - tremolo bar inverted dip
/n - tremolo bar return
-\n - tremolo bar Release down
S - shift slide
s - legato slide
/ -  slide into from below or out of upwards
\ -  slide into from above or out of downwards
~ - vibrato
W - wide vibrato
tr - trill
TP - tremolo picking
T - tapping
S - slap
P - pop
< - fade in
^ - brush up
v - brush down

            
            
Suggest correction
Creating personal tab
Creating personal tab
You can edit any tab online and save it as your Personal.

You can edit, replace or remove any tab part or add personal notes – all changes will be seen only by you.

Personal tabs can be accessed anytime from any device, even offline.
Learn more »
Give kudos to tab author, rate the tab!
1 2 3 4 5
comments
print report bad tab
guest
You may want to rate the tab now too:
select rating
Wanna post a correction for this tab? Suggest correction