Oops, an error
Loading. Please wait.

Old Man tab

version 2
version 2

Whole song

Interactive

3,921 views 1 this week
no commentswrite comment
1 2 3 4 5
x 3
add to favorites
×
Save as Personal and add changes to this tab that will be seen only by you. Learn more ›
×
You can save this tab as Personal to edit and correct it or add notes. All changes will be seen only by you. Learn more »
launch autoscroll
font size
0
reset
how to read this tab
guitar tuner
edit
Autoscroll
slow
fast
+/-
esc
set tempo
stop
Author
Difficulty
Ensiferum
Old Man
tabbed by: Fabian Nöthiger
email: fnoethiger@gmx.ch

(Riff 5a and Riff 5b are one! The same at the Riff 6a and Riff 6b)

Intro:
Riff 1
E|----------------------3--------3--2-2-------------------|
A|---7-7--5-5--3--7--2-----3--2---------------------------|
D|--------------------------------------------------------|
G|--------------------------------------------------------|
H|--------------------------------------------------------|
E|--------------------------------------------------------|
                                                    (4x)
Riff 2 
E|--------------------------------------------------------|
A|--------------------------------------------------------|
D|---7-7--10--14-14--10--12--10--11-----------------------|
G|--------------------------------------------------------|
H|--------------------------------------------------------|
E|--------------------------------------------------------|
                                                     (4x)
...than the Riff 1 and the Riff 2


Riff 3
E|--------------5--8--7-----------------------------------|
A|--------------------------------------------------------|
D|--------------------------------------------------------|
G|--------------------------------------------------------|
H|--------------------------------------------------------|
E|--------------------------------------------------------|
                                                     (8x)
...than the Riff 1 and the Riff 3


Riff 4 
E|------------------------9--------------------9----------|
A|---5--9--8--9-----9--8-----9--8--9-----9--8-------------|
D|---------------8--------------------8-------------------|
G|--------------------------------------------------------|
H|--------------------------------------------------------|
E|--------------------------------------------------------|
                                                     (6x)

Riff 5a
E|--------------------------------------------------------|
A|--------------------------------------------------------|
D|--------------------------------------------------------|
G|---7------------------------------5---------------------|
H|------10--11--10--11--8--8--6--5------------------------|
E|--------------------------------------------------------|
                                                     (4x)

Riff 5b
E|--------------------------------------------------------|
A|---8--8--10--8--7--7--8--7--3---------------------------|
D|--------------------------------------------------------|
G|--------------------------------------------------------|
H|--------------------------------------------------------|
E|--------------------------------------------------------|
                                                     (4x)
...than Riff 4

Riff 6a
E|--------------------------------------------------------|
A|---5-----5-----5-----5----------------------------------|
D|------7-----7-----7-----7-------------------------------|
G|--------------------------------------------------------|
H|--------------------------------------------------------|
E|--------------------------------------------------------|
                                                     (8x)

Riff 6b
E|--------------------------------------------------------|
A|--------------------------------------------------------|
D|---7-----7-----7-----7----------------------------------|
G|------9-----9-----9-----9-------------------------------|
H|--------------------------------------------------------|
E|--------------------------------------------------------|
                                                     (8x)

... and than the Riff 2 till end


            
            
Suggest correction
Creating personal tab
Creating personal tab
You can edit any tab online and save it as your Personal.

You can edit, replace or remove any tab part or add personal notes – all changes will be seen only by you.

Personal tabs can be accessed anytime from any device, even offline.
Learn more »
Give kudos to tab author, rate the tab!
1 2 3 4 5
comments
print report bad tab
guest
You may want to rate the tab now too:
select rating
Wanna post a correction for this tab? Suggest correction