Oops, an error
Loading. Please wait.

Wanderer intro tab

version 1
version 1

Intro

Interactive

8,805 views 15 this week
2 commentsread comments
1 2 3 4 5
x 3
add to favorites
×
Save as Personal and add changes to this tab that will be seen only by you. Learn more ›
×
You can save this tab as Personal to edit and correct it or add notes. All changes will be seen only by you. Learn more »
launch autoscroll
font size
0
reset
how to read this tab
guitar tuner
edit
Autoscroll
slow
fast
+/-
esc
set tempo
stop
Author
Difficulty
Title  : Wanderer
Tab by : Vaagur

Intro

|----------------------------------------------------------|
|-------------11-13----------------------------------------|
|----12-10-12-------12-12-10----10-12-10-------------------|
|-10-------------------------13----------13p12p10----------|
|----------------------------------------------------------|
|----------------------------------------------------------|

|-------------------------------------------10-------------|
|-------------11-13----13-11----11-13-11-13----11-10-------|
|----12-10-12-------12-------12----------------------12----|
|-10-------------------------------------------------------|
|----------------------------------------------------------|
|----------------------------------------------------------|

|----------------------------------------------------------|
|-------------11-13----10-11----11-13-11-10----------------|
|----12-10-12-------12-------12-------------12-------------|
|-10-------------------------------------------------------|
|----------------------------------------------------------|
|----------------------------------------------------------|

|----------------------------------------------------------|
|-------------11-13----------------------------------------|
|----12-10-12-------12-12-10----10-12-10-------------------|
|-10-------------------------13----------13p12p10----------|
|----------------------------------------------------------|
|----------------------------------------------------------|

|-9-9-11-12-11-12-14-12-11-9------9-9-11-12-11-12-11----9--|
|----------------------------12-9--------------------12----|
|----------------------------------------------------------|
|----------------------------------------------------------|
|----------------------------------------------------------|
|----------------------------------------------------------|

|-9-9-11-12-11-12-14-12-11-9------9-9-11-12-11-12-11----9--|
|----------------------------12-9--------------------------|
|----------------------------------------------------------|
|----------------------------------------------------------|
|----------------------------------------------------------|
|----------------------------------------------------------|

            
            
Suggest correction
Creating personal tab
Creating personal tab
You can edit any tab online and save it as your Personal.

You can edit, replace or remove any tab part or add personal notes – all changes will be seen only by you.

Personal tabs can be accessed anytime from any device, even offline.
Learn more »
Give kudos to tab author, rate the tab!
1 2 3 4 5
comments
print report bad tab
2 comments total.
0 reply
nickstix66 30 Jul 13, 2011 10:30 PM

The last 2 lines are in a different key....but the rest is great

+1 reply
nickstix66 30 Jul 13, 2011 10:35 PM

I think this is right-
|-8-8-10-11-10-11-13-11-10-8------8-8-10-11-10-11-10----8--|
|----------------------------11-8--------------------11----|
|----------------------------------------------------------|
|----------------------------------------------------------|
|----------------------------------------------------------|
|----------------------------------------------------------|

|-8-8-10-11-10-11-13-11-10-8------8-8-10-11-10-11-10----8--|
|----------------------------11-8--------------------------|
|----------------------------------------------------------|
|----------------------------------------------------------|
|----------------------------------------------------------|
|----------------------------------------------------------|

guest
You may want to rate the tab now too:
select rating
Wanna post a correction for this tab? Suggest correction