Oops, an error
Loading. Please wait.
We have an official Sorry Youre Not A Winner tab made by UG professional guitarists. Check out the tab »
×
4,360 views 1 this week
1 commentread comment
1 2 3 4 5
1 last vote to show rating
add to favorites
×
Save as Personal and add changes to this tab that will be seen only by you. Learn more ›
×
You can save this tab as Personal to edit and correct it or add notes. All changes will be seen only by you. Learn more »
launch autoscroll
font size
0
reset
how to read this tab
guitar tuner
backing track
0:00
0:00
edit
Autoscroll
slow
fast
+/-
esc
set tempo
stop
Author
-------------------------------------------------------------------------------
                             SORRY YOU'RE NOT A WINNER - Enter Shikari
-------------------------------------------------------------------------------
Tabbed by: Jami Charlesworth
Email: jamilovesyou@hotmail.co.uk

Hey Guys, this is my first ever TAB.
 I know it sounds stupid because i'm grade 5 nearly grade 6 guitar,
 but the truth is that im new to the site,
 and so have never really thought about tabbing songs myself.
 i HAVE, however used ultimateguitar hundreds of times since i started playing,
 but mainly for learning.
 I hope you like my first TAB,
 and i hope you'll use my next ones in the future.

Tuning: Drop C#


Intro:

D#|---------------------------------------------------------------------------|
A#|---------------------------------------------------------------------------|
F#|---------------------------------------------------------------------------|
C#|-----------------------------------10----------10--10--10--10--10--10------|
G#|-----0--0--7--8--------0--0--7--8--------0--0--12--12--12--12--12--12------|
C#|-----0--0--------10----0--0--------------0--0------------------------------|


D#|-----------------------------------------------------------|
A#|-----------------------------------------------------------|   C   C   C
F#|-----------------------------------------------------------|   L   L   L
C#|-----------------------------------10----------10--10--10--|   A   A   A
G#|-----0--0--7--8--------0--0--7--8--------0--0--12--12--12--|   P   P   P
C#|-----0--0--------10----0--0--------------0--0--------------|

Verse:   ^^^^^^^^   X 2   ^^^^^^^^

D#|---------------------------------------------------------------------------|
A#|---------------------------------------------------------------------------|
F#|---------------------------------------------------------------------------|
C#|-----------------------------------10----------10--10--10--10--10--10------|
G#|-----0--0--7--8--------0--0--7--8--------0--0--12--12--12--12--12--12------|
C#|-----0--0--------10----0--0--------------0--0------------------------------|


D#|---------------------------------------------------------------------------|
A#|---------------------------------------------------------------------------|
F#|---------------------------------------------------------------------------|
C#|-----------------------------------10----------10--10--10--10--10--10------|
G#|-----0--0--7--8--------0--0--7--8--------0--0--12--12--12--12--12--12------|
C#|-----0--0--------10----0--0--------------0--0------------------------------|

Chorus:   ^^^^^^^^   X 4   ^^^^^^^^


D#|---------------------------------------------------------------------------|
A#|---------------------------------------------------------------------------|
F#|---------------------------------------------------------------------------|
C#|---------------------------------------------------------------------------|
G#|-----0--0--0--10--0--0--0--10--0--0--10------------------------------------|
C#|-----0--0--0--12--0--0--0--12--0--0--12------------------------------------|


D#|---------------------------------------------------------------------------|
A#|---------------------------------------------------------------------------|
F#|---------------------------------------------------------------------------|
C#|---------------------------------------------------------------------------|
G#|----10--10--10--10--10--10--10----8--8--8--8--8--8--8--8-------------------|
C#|----10--10--10--10--10--10--10----8--8--8--8--8--8--8--8-------------------|


Intro 2:

D#|---------------------------------------------------------------------------|
A#|---------------------------------------------------------------------------|
F#|---------------------------------------------------------------------------|
C#|-----------------------------------10----------10--10--10--10--10--10------|
G#|-----0--0--7--8--------0--0--7--8--------0--0--12--12--12--12--12--12------|
C#|-----0--0--------10----0--0--------------0--0------------------------------|


D#|-----------------------------------------------------------|
A#|-----------------------------------------------------------|   C   C   C
F#|-----------------------------------------------------------|   L   L   L
C#|-----------------------------------10----------10--10--10--|   A   A   A
G#|-----0--0--7--8--------0--0--7--8--------0--0--12--12--12--|   P   P   P
C#|-----0--0--------10----0--0--------------0--0--------------|

Verse 2:   ^^^^^^^^   X 2   ^^^^^^^^

D#|---------------------------------------------------------------------------|
A#|---------------------------------------------------------------------------|
F#|---------------------------------------------------------------------------|
C#|-----------------------------------10----------10--10--10--10--10--10------|
G#|-----0--0--7--8--------0--0--7--8--------0--0--12--12--12--12--12--12------|
C#|-----0--0--------10----0--0--------------0--0------------------------------|


D#|---------------------------------------------------------------------------|
A#|---------------------------------------------------------------------------|
F#|---------------------------------------------------------------------------|
C#|-----------------------------------10----------10--10--10--10--10--10------|
G#|-----0--0--7--8--------0--0--7--8--------0--0--12--12--12--12--12--12------|
C#|-----0--0--------10----0--0--------------0--0------------------------------|

Chorus:   ^^^^^^^^   X 4   ^^^^^^^^


D#|---------------------------------------------------------------------------|
A#|---------------------------------------------------------------------------|
F#|---------------------------------------------------------------------------|
C#|---------------------------------------------------------------------------|
G#|-----0--0--0--10--0--0--0--10--0--0--10------------------------------------|
C#|-----0--0--0--12--0--0--0--12--0--0--12------------------------------------|


D#|---------------------------------------------------------------------------|
A#|---------------------------------------------------------------------------|
F#|---------------------------------------------------------------------------|
C#|---------------------------------------------------------------------------|
G#|----10--10--10--10--10--10--10----8--8--8--8--8--8--8--8----0--0--0--0-----|
C#|----10--10--10--10--10--10--10----8--8--8--8--8--8--8--8----0--0--0--0-----|

                                                                       (Let Ring)


Breakdown:   ^^^^^^^^   X 6   ^^^^^^^^


D#|----8---8---8---8---8---8---8---8---8---8---8---8---8---8---8---8----------|
A#|----10--10--10--10--10--10--10--10--10--10--10--10--10--10--10--10---------|
F#|----10--10--10--10--10--10--10--10--10--10--10--10--10--10--10--10---------|
C#|----0---0---0---0---0---0---0---0---0---0---0---0---0---0---0---0----------|
G#|----x---x---x---x---x---x---x---x---x---x---x---x---x---x---x---x----------|
C#|----x---x---x---x---x---x---x---x---x---x---x---x---x---x---x---x----------|


D#|----8---8---8---8---8---8---8---8---8---8---8---8---8---8---8---8----------|
A#|----11--11--11--11--11--11--11--11--8---8---8---8---8---8---8---8----------|
F#|----10--10--10--10--10--10--10--10--10--10--10--10--10--10--10--10---------|
C#|----0---0---0---0---0---0---0---0---0---0---0---0---0---0---0---0----------|
G#|----x---x---x---x---x---x---x---x---x---x---x---x---x---x---x---x----------|
C#|----x---x---x---x---x---x---x---x---x---x---x---x---x---x---x---x----------|

Chorus:   ^^^^^^^^   X 4   ^^^^^^^^


D#|---------------------------------------------------------------------------|
A#|---------------------------------------------------------------------------|
F#|---------------------------------------------------------------------------|
C#|---------------------------------------------------------------------------|
G#|-----0--0--0--10--0--0--0--10--0--0--10------------------------------------|
C#|-----0--0--0--12--0--0--0--12--0--0--12------------------------------------|


D#|---------------------------------------------------------------------------|
A#|---------------------------------------------------------------------------|
F#|---------------------------------------------------------------------------|
C#|---------------------------------------------------------------------------|
G#|----10--10--10--10--10--10--10----8--8--8--8--8--8--8--8-------------------|
C#|----10--10--10--10--10--10--10----8--8--8--8--8--8--8--8-------------------|




| /  slide up
| \  slide down
| h  hammer-on
| p  pull-off
| ~  vibrato
| +  harmonic
| x  Mute note
===============================================================================

            
            
Suggest correction
Creating personal tab
Creating personal tab
You can edit any tab online and save it as your Personal.

You can edit, replace or remove any tab part or add personal notes – all changes will be seen only by you.

Personal tabs can be accessed anytime from any device, even offline.
Learn more »
Give kudos to tab author, rate the tab!
1 2 3 4 5
comments
print report bad tab
1 comment total.
0 reply
xKnifekillerx 393 Oct 26, 2009 02:14 PM

you know this isnt all that great man lol
its not all right. and your playing most of the chords wrong

guest
You may want to rate the tab now too:
select rating
Wanna post a correction for this tab? Suggest correction