Oops, an error
Loading. Please wait.

When A Jealous Man Finds A Gun tab

version 1
version 1

Whole song

Interactive

5,587 views 1 this week
6 commentsread comments
1 2 3 4 5
x 4
add to favorites
×
Save as Personal and add changes to this tab that will be seen only by you. Learn more ›
×
You can save this tab as Personal to edit and correct it or add notes. All changes will be seen only by you. Learn more »
launch autoscroll
font size
0
reset
how to read this tab
guitar tuner
edit
Autoscroll
slow
fast
+/-
esc
set tempo
stop
               WHEN A JEALOUS MAN FINDS A GUN - Enter Shikari
---------------------------------------------------------------------------------------------|
Tabbed by:Matt
Email:mattos_momentos@hotmail.com

Tuning: Dropped-D (DADGBE)


Main Riff:
E|------------------------------------------------------|
B|----------10------------10-------------10-------------|
G|-----------x--------------x---------------x-----------|
D|--7-7----0-7----7-7----0-7------7-7---0-7---7---------|
A|--5-5------------5-5--------------5-5----------5------|
D|------------------------------------------------------|

E|-------------------------------------------------------------|
B|----------10------------10--------------15----------10-------|
G|-----------x--------------x----------------x------------x----|
D|--7-7----0-7----7-7----0-7------4-4---0-12---7-7---0-7-------|
A|--5-5------------5-5--------------2-2-----------5-5----------|
D|-------------------------------------------------------------|

E|--------------------------------------------------------------------------|
B|----------10------------10--------------15---7t-3-5-7t-3-5-7t-3-5-8t------|
G|-----------x--------------x----------------x------------------------------|
D|--7-7----0-7----7-7----0-7------4-4---0-12--------------------------------|
A|--5-5------------5-5--------------2-2-------------------------------------|
D|--------------------------------------------------------------------------|


E||-----------------------------------------------------------------|
B||O----------10------------10--------------15----------10--O-------|
G||------------x--------------x----------------x------------x-------|
D||---7-7----0-7----7-7----0-7------4-4---0-12---7-7---0-7----------|
A||O--5-5------------5-5--------------2-2-----------5-5---------O---|
D||-----------------------------------------------------------------|

Verse:
                   PM--| PM--| PM----------|    x4
E||----------------------------------------|
B||O-----------------------------------O---|
G||---------------------6-----6-----6------|
D||--------4-------------------------------|
A||O--4h5----5-4h5--0-0---0-0---0-0----O---|
D||----------------------------------------|

Chorus:
E||-------------------------------------------|
B||O------------------------------------------|
G||--7-7--7-7--4-4--4-4-----------------------|
D||--7-7--7-7--4-4--4-4--5-5--5-5--7-7--7-7---|
A||O-5-5--5-5--2-2--2-2--5-5--5-5--7-7--7-7---|
D||----------------------5-5--5-5--7-7--7-7---|

E|---------------------------------------------||
B|--------------------------------------------O||
G|--7-7--7-7--4-4--4-4-------------------------||
D|--7-7--7-7--4-4--4-4--5-5--5-5--7--x--x--x---||
A|--5-5--5-5--2-2--2-2--5-5--5-5--7--x--x--x--O||
D|----------------------5-5--5-5--7--x--x--x---||

Main Riff
Verse
Chorus

Bridge:
E|------------------------------------------------------|
B|----------10------------10-------------10-------------|
G|-----------x--------------x---------------x-----------|
D|--7-7----0-7----7-7----0-7------7-7---0-7---7---------|
A|--5-5------------5-5--------------5-5----------5------|
D|------------------------------------------------------|

E||----------------------------------------------------------------|
B||O----------10------------10--------------15----------10-O-------|
G||------------x--------------x----------------x------------x------|
D||---7-7----0-7----7-7----0-7------4-4---0-12---7-7---0-7---------|
A||O--5-5------------5-5--------------2-2-----------5-5--------O---|
D||----------------------------------------------------------------|

E|-----------------------------|
B|-----------------------------|
G|-----------------------------|
D|--x-x-----5----------:REST:--|
A|--x-x-4h5---5-4h5------------|
D|-----------------------------|

E||------------------------------------------------------------------||
B||O----------------------------------------------------------------O||
G||------------------------------------------------------------------||
D||--------4---------------5---------------5---------------4-5-4-----||
A||O--4h5----5-4h5---5-4h5---5-4h5---5-4h5---5-4h5---5-4h5-------5--O||
D||------------------------------------------------------------------||

(clean guitar)
E|---------------2------0---|---2------2------5------2---|
B|-3------3------3------3---|---3------3------3------3---|
G|-2------2------2------2---|---2------4------2------2---|
D|-0------2------0------2---|---0------4------0------0---|
A|--------------------------|----------------------------|
D|--------------------------|----------------------------|

E|---2--2-0---0-2-0-5--5-3-2-7-5-3-2--2-0---0-2-0-5--5-3-2-7-5-3----|
B|----------3-----------------------------3-------------------------|
G|------------------------------------------------------------------|
D|------------------------------------------------------------------|
A|------------------------------------------------------------------|
D|------------------------------------------------------------------|

(Distorted guitar)
E||---------------------------|----------------------|
B||O--------------------------|----------------------|
G||--------------11-----------|----------11----------|
D||--11h12-11h12----12-11h12--|-12-11h12----12-11h12-|
A||O--------------------------|----------------------|
D||---------------------------|----------------------|

E|--------------------------|------------------------||
B|--------------------------|-----------------------O||
G|-------------11-----------|----------11-12-11------||
D|-11h12-11h12----12-11h12--|-12-11h12----------12---||
A|--------------------------|-----------------------O||
D|--------------------------|------------------------||


Breakdown:
E|----------------------------------------------|
B|----------------------------------------------|
G|----------------------------------------------|
D|----------------------------------------------|
A|-0---0---0---0--0--0--0--0-0-0-0-0-0-0-0-5*---|
D|-0---0---0---0--0--0--0--0-0-0-0-0-0-0-0------|

                                       x4
E||------------------|-----------------||
B||O-----------------|----------------O||
G||------------------|-----------------||
D||------------------|-----8--8--8-----||
A||O-0-0-1h0-0-1h0-0-|-0-0-6--6--6----O||
D||--0-0-1h0-0-1h0-0-|-0-0-------------||

E|----------------|---------------------------------|-----------------|
B|----------------|---------------------------------|-----------------|
G|----------------|------5*---5*------------8-8-8--|------------------|
D|----------------|--------4*---4*----------8-8-8--|------------------|
A|--0-0--1h0-0-0--|-0-0-------------1h0-0-0---------|-0-0--1---0-0----|
D|--0-0--1h0-0-0--|-0-0-------------1h0-0-0---------|-0-0--1---0-0----|

E|--------------------------------------|
B|----------------------------------O---|
G|-----5*---5*------------8-8-8---------|
D|-------4*---4*----------8-8-8---------|
A|-0-0------------1h0-0-0-----------O---|
D|-0-0------------1h0-0-0---------------|


E| -------------------||
B|--------------------||
G|--------------------||
D|--------------------||
A|-0-0----------------||
D|-0-0----------------||

* = natural harmonic
/ = slide down

Any corrections, email me please
matt
xx

            
            
Suggest correction
Creating personal tab
Creating personal tab
You can edit any tab online and save it as your Personal.

You can edit, replace or remove any tab part or add personal notes – all changes will be seen only by you.

Personal tabs can be accessed anytime from any device, even offline.
Learn more »
comments
print report bad tab
6 comments total. Showing first comments.
0 reply
shabba_182 37 Jun 22, 2006 10:57 AM

after going

E|-------------------------------------------------------------------
B|--------10---------10----------------------------------------------
G|--------x----------x-----------------------------------------------
D|-7-7--0-7---7-7--0-7-----------------------------------------------
A|-5-5--------5-5----------------------------------------------------
D|-------------------------------------------------------------------

it should then go

E|-------------------------------------------------------------------
B|-------------------------------------------------------------------
G|-------------------------------------------------------------------
D|-4-4--4------------------------------------------------------------
A|-2-2--2--5--5-5--5---0---------------------------------------------
D|---------5--5-5--5---0---------------------------------------------

0 reply
shabba_182 37 Jun 22, 2006 11:01 AM

then also
E|-------------------------------------------------------------------
B|--------10---------10-------------7t-3-5-7t-3-5-7t-3-5-8t----------
G|--------x----------x-----------------------------------------------
D|-7-7--0-7---7-7--0-7---4-4--4--------------------------------------
A|-5-5--------5-5--------2-2--2--5-----------------------------------
D|-------------------------------5-----------------------------------

0 reply
Kingyem0c0re 254 Oct 09, 2006 05:23 AM

decent job

guest
You may want to rate the tab now too:
select rating
Wanna post a correction for this tab? Suggest correction