Oops, an error
Loading. Please wait.

Lapse tab

version 2
version 2

Whole song

9,914 views 1 this week
1 commentread comment
1 2 3 4 5
x 5
add to favorites
×
Save as Personal and add changes to this tab that will be seen only by you. Learn more ›
×
You can save this tab as Personal to edit and correct it or add notes. All changes will be seen only by you. Learn more »
launch autoscroll
font size
0
reset
how to read this tab
guitar tuner
edit
Autoscroll
slow
fast
+/-
esc
set tempo
stop
Author
------------------------------------------------------------------------
                              Lapse - Envy On The Coast 
------------------------------------------------------------------------

Tabbed by: Blake (Love4Fire)
Email: thingslykechemistry@yahoo.com

Update: A new tuning!

I'm almost positive this is the right way, but if you find it a hassle to tune to 
this, there's also another great tab to play it in drop d (version 3).

Tuning (Low to High): E-B-E-G#-B-E


Verse:

  Emaj7    F#7sus4  C#m9
|-0--------0--------0-----|
|-0--------0--------4-----|
|-7--------5--------3-----|
|-7--------7--------4-----|
|-5--------7--------x-----|
|-x--------x--------4-----|


Verse(Break)/Pre-chorus:

  C#m7     Emaj     F#11
|-0--------0--------0-----|
|-0--------0--------0-----|
|-3--------0--------2-----|
|-4--------0--------2-----|
|-2--------0--------2-----|
|-x--------0--------2-----|


Chorus:

  Emaj     Eadd9    C#m9    F#11
|-0--------0--------0-------0-----|
|-0--------0--------4-------0-----|
|-0--------0--------3-------2-----|
|-0--------7--------4-------2-----|
|-0--------7--------x-------2-----|
|-0--------7--------4-------2-----|


Bridge:

  C#m9     F#13b9   C#m7    Bmaj9      
|-0--------0--------0-------x-----|
|-0--------4--------0-------0-----|
|-0--------2--------3-------5-----|
|-0--------3--------4-------6-----|
|-0--------x--------2-------x-----|
|-0--------3--------x-------6-----|

  C#m9     F#13b9   C#m7    Emaj    F#11      
|-0--------0--------0-------0-------0----|
|-0--------4--------0-------0-------0----|
|-0--------2--------3-------0-------2----|
|-0--------3--------4-------0-------2----|
|-0--------x--------2-------0-------2----|
|-0--------3--------x-------0-------2----|

            
            
Suggest correction
Creating personal tab
Creating personal tab
You can edit any tab online and save it as your Personal.

You can edit, replace or remove any tab part or add personal notes – all changes will be seen only by you.

Personal tabs can be accessed anytime from any device, even offline.
Learn more »
comments
print report bad tab
1 comment total.
0 reply
feyfield 10 Jul 26, 2010 02:40 PM

Ahh, the tuning... this is why I couldn't figure it out.

guest
You may want to rate the tab now too:
select rating
Wanna post a correction for this tab? Suggest correction