Oops, an error
Loading. Please wait.

Like I Do bass

2,062 views 1 this week
no commentswrite comment
1 2 3 4 5
x 3
add to favorites
×
Save as Personal and add changes to this tab that will be seen only by you. Learn more ›
×
You can save this tab as Personal to edit and correct it or add notes. All changes will be seen only by you. Learn more »
launch autoscroll
font size
0
reset
guitar tuner
edit
Autoscroll
slow
fast
+/-
esc
set tempo
stop
Author
Difficulty
-----------------------------------------------------------------------------
		         Like I Do - Envy On The Coast
-----------------------------------------------------------------------------

Tabbed By : Nathan Schaffert
e-mail: sk8tbs152@aim.com

Tuning: Standard
  
  Intro (x3)
G|---------------------------------9--------------------------------|
D|-----------------------------9-------9----------------------------|
A|-7---------------------------------------7------------------------|
E|---------------------------------------------------------8--------|
   1   +   2   +   3   +   4   +   1   +   2   +   3   +   4   +
G|---------------------------------9---11--11-/12-------------------|
D|-----------------------------9---------------------------9--------|
A|------------------------------------------------------------------|
E|------------------------------------------------------------------|
   1   +   2   +   3   +   4   +   1   +   2   +   3   +   4   +

  (4th time)
G|---------------------------------9--------------------------------|
D|-----------------------------9-------9----------------------------|
A|-7---------------------------------------7------------------------|
E|---------------------------------------------------------8--------|
   1   +   2   +   3   +   4   +   1   +   2   +   3   +   4   +
G|------------------------------------------------------------------|
D|-----------------------------------------9-/10-----------9--------|
A|---------------------------------10--12---------------------------|
E|-----------------------------8------------------------------------|
   1   +   2   +   3   +   4   +   1   +   2   +   3   +   4   +

  Verse (x5)
G|---------------------------------9--------------------------------|
D|-----------------------------9-------9----------------------------|
A|-7---------------------------------------7------------------------|
E|---------------------------------------------------------8--------|
   1   +   2   +   3   +   4   +   1   +   2   +   3   +   4   +
G|---------------------------------9---11--11-/12-------------------|
D|-----------------------------9---------------------------9--------|
A|------------------------------------------------------------------|
E|------------------------------------------------------------------|
   1   +   2   +   3   +   4   +   1   +   2   +   3   +   4   +

  (6th time)
G|---------------------------------9--------------------------------|
D|-----------------------------9-------9----------------------------|
A|-7---------------------------------------7------------------------|
E|---------------------------------------------------------8--------|
   1   +   2   +   3   +   4   +   1   +   2   +   3   +   4   +
G|------------------------------------------------------------------|
D|------------------------------------------------------------------|
A|------------------------------------------------------------------|
E|------------------------------------------------------------------|
   1   +   2   +   3   +   4   +   1   +   2   +   3   +   4   +

  Chorus (x2)
G|------------------------------------------------------------------|
D|------------------------------------------------------------------|
A|-10----------------------------------------------10-h12-----------|
E|------------------------------------------------------------------|
   1   +   2   +   3   +   4   +   1   +   2   +   3   +   4   +
G|------------------------------------------------------------------|
D|------------------------------------------------------------------|
A|-5-------------------------------5-------/-------12-h14-----------|
E|------------------------------------------------------------------|
   1   +   2   +   3   +   4   +   1   +   2   +   3   +   4   +
G|------------------------------------------------------------------|
D|------------------------------------------------------------------|
A|-7----------------------------------------------------------------|
E|------------------------------------------------------------------|
   1   +   2   +   3   +   4   +   1   +   2   +   3   +   4   +
G|------------------------------------------------------------------|
D|------------------------------------------------------------------|
A|-3----------------------------------------------------------------|
E|------------------------------------------------------------------|
   1   +   2   +   3   +   4   +   1   +   2   +   3   +   4   +

  (After Chorus)
G|------------------------------------------------------------------|
D|------------------------------------------------------------------|
A|-3----------------------------------------------------------------|
E|------------------------------------------------------------------|
   1   +   2   +   3   +   4   +   1   +   2   +   3   +   4   +


  Verse (x7)
G|---------------------------------9--------------------------------|
D|-----------------------------9-------9----------------------------|
A|-7---------------------------------------7------------------------|
E|---------------------------------------------------------8--------|
   1   +   2   +   3   +   4   +   1   +   2   +   3   +   4   +
G|---------------------------------9---11--11-/12-------------------|
D|-----------------------------9---------------------------9--------|
A|------------------------------------------------------------------|
E|------------------------------------------------------------------|
   1   +   2   +   3   +   4   +   1   +   2   +   3   +   4   +

  (8th Time)
G|---------------------------------7---9---9-/-11-------------------|
D|-----------------------------7------------------------------------|
A|-5----------------------------------------------------------------|
E|---------------------------------------------------------8--------|
   1   +   2   +   3   +   4   +   1   +   2   +   3   +   4   +
G|------------------------------------------------------------------|
D|------------------------------------------------------------------|
A|------------------------------------------------------------------|
E|------------------------------------------------------------------|
   1   +   2   +   3   +   4   +   1   +   2   +   3   +   4   +

  Chorus (x2)
G|------------------------------------------------------------------|
D|------------------------------------------------------------------|
A|-10----------------------------------------------10-h12-----------|
E|------------------------------------------------------------------|
   1   +   2   +   3   +   4   +   1   +   2   +   3   +   4   +
G|------------------------------------------------------------------|
D|------------------------------------------------------------------|
A|-5-------------------------------5-------/-------12-h14-----------|
E|------------------------------------------------------------------|
   1   +   2   +   3   +   4   +   1   +   2   +   3   +   4   +
G|------------------------------------------------------------------|
D|------------------------------------------------------------------|
A|-7----------------------------------------------------------------|
E|------------------------------------------------------------------|
   1   +   2   +   3   +   4   +   1   +   2   +   3   +   4   +
G|------------------------------------------------------------------|
D|------------------------------------------------------------------|
A|-3----------------------------------------------------------------|
E|------------------------------------------------------------------|
   1   +   2   +   3   +   4   +   1   +   2   +   3   +   4   +

  (After Chorus)
G|------------------------------------------------------------------|
D|------------------------------------------------------------------|
A|-3----------------------------------------------------------------|
E|------------------------------------------------------------------|
   1   +   2   +   3   +   4   +   1   +   2   +   3   +   4   +

  Bridge/Ending
G|---------------------------------9--------------------------------|
D|------------------------------9------9----------------------------|
A|-7---------------------------------------7------------------------|
E|------------------------------------------------------------------|
   1   +   2   +   3   +   4   +   1   +   2   +   3   +   4   +
G|------------------------------------------------------------------|
D|-------------------------------------10---------------------------|
A|---------------------------------10------10--------------5--------|
E|-----------------------------8---------------8--------------------|
   1   +   2   +   3   +   4   +   1   +   2   +   3   +   4   +
G|---------------------------------9--------------------------+7+-/-|
D|------------------------------9------9----------------------------|
A|-7---------------------------------------7------------------------|
E|------------------------------------------------------------------|
   1   +   2   +   3   +   4   +   1   +   2   +   3   +   4   +
G|-9----------------------------------------------------------------|
D|-------------------------------------10---------------------------|
A|---------------------------------10------10--------------5--------|
E|-----------------------------8---------------8--------------------|
   1   +   2   +   3   +   4   +   1   +   2   +   3   +   4   +
G|---------------------------------9--------------------------------|
D|------------------------------9------9----------------------------|
A|-7---------------------------------------7------------------------|
E|------------------------------------------------------------------|
   1   +   2   +   3   +   4   +   1   +   2   +   3   +   4   +
G|------------------------------------------------------------------|
D|-------------------------------------10---------------------------|
A|---------------------------------10------10--------------5--------|
E|-----------------------------8---------------8--------------------|
   1   +   2   +   3   +   4   +   1   +   2   +   3   +   4   +
G|---------------------------------9--------------------------+7+-\-|
D|------------------------------9------9----------------------------|
A|-7---------------------------------------7------------------------|
E|------------------------------------------------------------------|
   1   +   2   +   3   +   4   +   1   +   2   +   3   +   4   +
G|-5----------------------------------------------------------------|
D|-------------------------------------10---------------------------|
A|---------------------------------10------10--------------5--------|
E|-----------------------------8---------------8--------------------|
   1   +   2   +   3   +   4   +   1   +   2   +   3   +   4   +
G|---------------------------------9--------------------------------|
D|------------------------------9------9----------------------------|
A|-7---------------------------------------7------------------------|
E|------------------------------------------------------------------|
   1   +   2   +   3   +   4   +   1   +   2   +   3   +   4   +
G|------------------------------------------------------------------|
D|-------------------------------------10---------------------------|
A|---------------------------------10------10--------------5--------|
E|-----------------------------8---------------8--------------------|
   1   +   2   +   3   +   4   +   1   +   2   +   3   +   4   +
G|---------------------------------9--------------------------+7+-/-|
D|------------------------------9------9----------------------------|
A|-7---------------------------------------7------------------------|
E|------------------------------------------------------------------|
   1   +   2   +   3   +   4   +   1   +   2   +   3   +   4   +
G|-9----------------------------------------------------------------|
D|-------------------------------------10---------------------------|
A|---------------------------------10------10--------------5--------|
E|-----------------------------8---------------8--------------------|
   1   +   2   +   3   +   4   +   1   +   2   +   3   +   4   +
G|---------------------------------9--------------------------------|
D|------------------------------9------9----------------------------|
A|-7---------------------------------------7------------------------|
E|------------------------------------------------------------------|
   1   +   2   +   3   +   4   +   1   +   2   +   3   +   4   +
G|------------------------------------------------------------------|
D|-------------------------------------10---------------------------|
A|---------------------------------10------10--------------5--------|
E|-----------------------------8---------------8--------------------|
   1   +   2   +   3   +   4   +   1   +   2   +   3   +   4   +
G|---------------------------------9--------------------------------|
D|------------------------------9------9----------------------------|
A|-7---------------------------------------7------------------------|
E|------------------------------------------------------------------|
   1   +   2   +   3   +   4   +   1   +   2   +   3   +   4   +
G|------------------------------------------------------------------|
D|-------------------------------------10---------------------------|
A|---------------------------------10------10--------------5--------|
E|-----------------------------8---------------8--------------------|
   1   +   2   +   3   +   4   +   1   +   2   +   3   +   4   +
G|---------------------------------9--------------------------------|
D|------------------------------9------9----------------------------|
A|-7---------------------------------------7------------------------|
E|------------------------------------------------------------------|
   1   +   2   +   3   +   4   +   1   +   2   +   3   +   4   +
G|------------------------------------------------------------------|
D|-------------------------------------10---------------------------|
A|---------------------------------10------10--------------5--------|
E|-----------------------------8---------------8--------------------|
   1   +   2   +   3   +   4   +   1   +   2   +   3   +   4   +
G|---------------------------------9--------------------------------|
D|------------------------------9------9----------------------------|
A|-7---------------------------------------7------------------------|
E|------------------------------------------------------------------|
   1   +   2   +   3   +   4   +   1   +   2   +   3   +   4   +
G|------------------------------------------------------------------|
D|-------------------------------------10---------------------------|
A|---------------------------------10------10--------------5--------|
E|-----------------------------8---------------8--------------------|
   1   +   2   +   3   +   4   +   1   +   2   +   3   +   4   +
G|---------------------------------9--------------------------------|
D|------------------------------9------9----------------------------|
A|-7---------------------------------------7------------------------|
E|------------------------------------------------------------------|
   1   +   2   +   3   +   4   +   1   +   2   +   3   +   4   +
G|------------------------------------------------------------------||
D|------------------------------------------------------------------||
A|------------------------------------------------------------------||
E|------------------------------------------------------------------||
   1   +   2   +   3   +   4   +   1   +   2   +   3   +   4   +


| /  slide up
| \  slide down
| h  hammer-on
| p  pull-off
| ~  vibrato
| +  harmonic
| x  Mute note
===================================================================
*** If you would like me to try and tab out any other song, especially
 an Envy On The Coast song, I am also open to requests! IM or email me
 at sk8tbs152@aim.com***

            
            
Suggest correction
Creating personal tab
Creating personal tab
You can edit any tab online and save it as your Personal.

You can edit, replace or remove any tab part or add personal notes – all changes will be seen only by you.

Personal tabs can be accessed anytime from any device, even offline.
Learn more »
Give kudos to tab author, rate the tab!
1 2 3 4 5
comments
print report bad tab
guest
You may want to rate the tab now too:
select rating
Wanna post a correction for this tab? Suggest correction