Oops, an error
Loading. Please wait.

Arkussa Vainaan tab

986 views 9 this week
no commentswrite comment
1 2 3 4 5
2 more votes to show rating
add to favorites
×
Save as Personal and add changes to this tab that will be seen only by you. Learn more ›
×
You can save this tab as Personal to edit and correct it or add notes. All changes will be seen only by you. Learn more »
launch autoscroll
font size
0
reset
how to read this tab
guitar tuner
edit
Autoscroll
slow
fast
+/-
esc
set tempo
stop
Artisti: Eppu Normaali
Albumi: Studio Etana (1993)
Kappale: Arkussa Vainaan

Tuning F A# D# G# C F or Capo 1st fret

[Intro] x3
 Am           G/Am         F            Em
e|-------------------------|-------------------------|
B|-------1-----------1-----|-------------------------|
G|-----2---2-------2---2---|-------2-----------4-----|
D|---2-------2---2-------2-|-----3---3-------2---2---|
A|-0-----------------------|---3-------3---2-------2-|
E|-------------3-----------|-1-----------0-----------|

[Verse]

Em     G           F            Am
Vannoa voisin että murhaan tuon veikon
Dm              F     Am          Em
Joka keksi että kovat pojat yksin ovat
Em      G     F         Am
Ja että sääli on merkki heikon
Dm               F    Em    Am
Jos hänet tapaan sitä tunne en

[Interlude]

 Am          G/Am            F        Em 
|--------------------------|------------------------|
|------------------4/5-----|------------------------|
|----------------2-----5-2-|-4/5-2----4/5-4---------|
|--------------------------|------------------------|
|--------------------------|------------------------|
|--------------------------|------------------------|
                                               Uskon
 Am          G/Am           F          Em
|--------------------------|------------------------|
|--------------------------|-4/5--------------------|
|--------------------------|-----5-4-2--------------|
|--------------------------|-----------2------------|
|--------------------------|------------------------|
|--------------------------|------------------------|
  sen

[Verse]

Em      G          F       Am
Melkein hirttäisin armotta herrat
Dm      F             Am       Em
Repisin pallit niillä tukkisin suut
Em       G         F        Am    
Ne jotka jauhoivat tuhannet kerrat
      Dm         F     Em   A5     
Ettei tunteitaan näytä kuin muut

[Chorus]

(Am)  Dm            G          Am
Koska vaikka voisin talon hajottaa
    Dm      G        Am
ja nyrkkini murskata myös             
   Dm         G    A5     G5 F5   
ja prätkällä sutia mustaa vanaa
Dm       Em 
sanaa en sano
F             G
en voi kun en voi
F           Em
on päässäni hiljaista
F         G          
tahtoisin kiljaista         
A5  E5 G5 A5  E5       A5  
Voi onneton   mikä nyt on  
A5 E5 G5  F5    G5      A5 
miksi mun suuni on sanaton   
A5 E5 G5 A5     E5       F5   
Mielessä hiljaa sanontaa lainaan 
Dm       F       Em      A5
sanaisen arkkuni sisällä vainaan

Solo 1/2 
  Dm          G         Am 
|----------------------------------------|
|-----------------------10---10-10--10---| 
|-/7-------------------------------------| 
|----7---7-9/10-9-7-7-7----7-------7---7-| 
|----------------------------------------|
|----------------------------------------|x2
  Dm           G    A5 G5  F5     Dm     Em   Am    Am/G      F      Em
|-----------------------------|------------------|
|-----------------------------|------------------|
|-/7---------------9---/12----|------------------|
|----7--7-9s10-9-7---7-----10-|---/12---/9---/7--|
|-----------------------------|------------------|
|-----------------------------|------------------|

Soolo 2/2 (komppikitara näppäilee introa)
       Am  Am/G  F     Em    Am    Am/G     F          Em
|-------------|-----------------|---------------------------------|
|-------------|-----------------|---10-10---8-8-8-8---------------|
|-------------|---5---5/7-5-----|-------------------9-9-9-9-9-9-9-|
|-------/7----|-7---7-------7-7-|---------------------------------|
|-------------|-----------------|---------------------------------|
|-------------|-----------------|---------------------------------|
Am  Am/G  F   Em
|-------------|
|-------------|
|-9---7-7-7b9-| (volume swellillä toi ysi esiin ja nopea bendi seiskalta 
|-------------|  ysiin)
|-------------|
|-------------|

[Verse]

Em       G        F          Am
Baseball-mailalla hakkaan ne jaskat
      Dm        F      Am        Em
Jotka nöyryytti mua ja mä sitten sua
Em       G       F        Am
Ja koska lähdit kolhin nuo paskat
      Dm    F   Em   A5
Jotka sinua näin opettaa

[Chorus]

(Am)  Dm            G           Am
Koska vaikka voisin kaikki lopettaa
    Dm      G        Am
ja nyrkkini murskata myös             
   Dm      G      A5     G5 F5   
ja perkele huutaa saatanan tanaa
Dm       Em 
sanaa en sano
F             G
en voi kun en voi
F           Em
on päässäni hiljaista
F         G          
tahtoisin kiljaista         
A5  E5 G5 A5  E5       A5  
Voi onneton   mikä nyt on  
A5 E5 G5  F5    G5      A5 
miksi mun suuni on sanaton   
A5 E5 G5 A5     E5       F5   
Mielessä hiljaa sanontaa lainaan 
Dm       F       Em      A5
sanaisen arkkuni sisällä vainaan

[Chorus]

   Dm      G      A5     G5 F5   
Ja perkele huutaa saatanan tanaa
Dm       Em 
sanaa en sano
F             G
en voi kun en voi
F           Em
on päässäni hiljaista
F         G          
tahtoisin kiljaista         
A5  E5 G5 A5  E5       A5  
Voi onneton   mikä nyt on  
A5 E5 G5  F5    G5      A5 
miksi mun suuni on sanaton   
A5 E5 G5 A5     E5       F5   
Mielessä hiljaa sanontaa lainaan 
Dm       F       Em      A5
sanaisen arkkuni sisällä vainaan

A5  E5 G5 A5  E5       A5  
Voi onneton   mikä nyt on  
A5 E5 G5  F5    G5      A5 
miksi mun suuni on sanaton   
A5 E5 G5 A5     E5       F5   
Mielessä hiljaa sanontaa lainaan 
Dm       F       Em      A5
sanaisen arkkuni sisällä vainaan

Outro    
F5      G5       A5 E5 G5 A5///



**************************************
|/   Slide up
|b   Bend
**************************************

            
            
Suggest correction
Creating personal tab
Creating personal tab
You can edit any tab online and save it as your Personal.

You can edit, replace or remove any tab part or add personal notes – all changes will be seen only by you.

Personal tabs can be accessed anytime from any device, even offline.
Learn more »
Give kudos to tab author, rate the tab!
1 2 3 4 5
comments
print report bad tab
guest
You may want to rate the tab now too:
select rating
Wanna post a correction for this tab? Suggest correction