Oops, an error
Loading. Please wait.

Jee Jee tab

version 1
version 1

Whole song

Interactive

49 views 3 this week
no commentswrite comment
1 2 3 4 5
3 more votes to show rating
add to favorites
×
Save as Personal and add changes to this tab that will be seen only by you. Learn more ›
×
You can save this tab as Personal to edit and correct it or add notes. All changes will be seen only by you. Learn more »
launch autoscroll
font size
0
reset
how to read this tab
guitar tuner
edit
Autoscroll
slow
fast
+/-
esc
set tempo
stop
[Intro]
   1 + 2 + 3 + 4 +   1 + 2 + 3 + 4 +   1 + 2 + 3 + 4 +   1 + 2 + 3 + 4 +
   B5                E5                D                 A
e|-----------------|-----------------|-----------------|-----------------|
B|-----------------|-------0---------|-----------------|-----------------|
G|-4---------------|-----------2-0---|-----------------|-----------------|
D|-4---------------|-2-------------4-|-0---0-0-4h5-4-0-|-----------------|  (x2)
A|-2---------------|-2---------------|-----------------|-0---0-0-4h5-4-0-|
E|-----------------|-0---------------|-----------------|-----------------|

   1 + 2 + 3 + 4 +   1 + 2 + 3 + 4 +   1 + 2 + 3 + 4 +   1 + 2 + 3 + 4 +
 D#5 E5            D#5 E5            D#5 E5            D#5 E5
e|-----------------|-----------------|-----------------|-----------------|
B|-----------------|-----------------|-----------------|-----------------|
G|-----------------|-----------------|-----------------|-----------------|
D|-8-9-9-9---9-9-9-|-8-9-9-9---9-9-9-|-8-9-9-9-7-9-9-9-|-8-9-9-9---9-9-9-|
A|-6-7-7-7---7-7-7-|-6-7-7-7---7-7-7-|-6-7-7-7-6-7-7-7-|-6-7-7-7---7-7-7-|
E|-----------------|-----------------|-----------------|-----------------|


[Verse 1]
   1 + 2 + 3 + 4 +   1 + 2 + 3 + 4 +   1 + 2 + 3 + 4 +   1 + 2 + 3 + 4 +
   B5                E5                D5                A5
e|-----------------|-----------------|-----------------|-----------------|
B|-----------------|-----------------|-----------------|-----------------|
G|-----------------|-----------------|-----------------|-----------------|
D|-4---------------|-----------------|-7---------------|-----------------|  (x2)
A|-2---------------|-2---------------|-5---------------|-7---------------|
E|-----------------|-0---------------|-----------------|-5---------------|
  Tässä on viisi    Eppua             viisi kaunista    heppua
Me soitamme rajulla tavalla        ja näytämme hyvältä  lavalla


[Chorus]
   1 + 2 + 3 + 4 +   1 + 2 + 3 + 4 +   1 + 2 + 3 + 4 +   1 + 2 + 3 + 4 +
   B5                E5                D5                A5
e|-----------------|-----------------|-----------------|-----------------|
B|-----------------|-----------------|-----------------|-----------------|
G|-----------------|-----------------|-----------------|-----------------|
D|-4---------------|-----------------|-7---------------|-----------------|  (x2)
A|-2---------------|-2---------------|-5---------------|-7---------------|
E|-----------------|-0---------------|-----------------|-5---------------|
  Jee jee           jeee              jee jee jee jee   jee
  Jee jee           jeee              jee jee jee jee   jee


[Verse 2]
   1 + 2 + 3 + 4 +   1 + 2 + 3 + 4 +   1 + 2 + 3 + 4 +   1 + 2 + 3 + 4 +
   B5                E5                D5                A5
e|-----------------|-----------------|-----------------|-----------------|
B|-----------------|-----------------|-----------------|-----------------|
G|-----------------|-----------------|-----------------|-----------------|
D|-4---------------|-----------------|-7---------------|-----------------|  (x2)
A|-2---------------|-2---------------|-5---------------|-7---------------|
E|-----------------|-0---------------|-----------------|-5---------------|
On keikka-autossamme kaunis maali     siinä lukee että  Eppu Normaali, meillä on 
  asiat hyvässä     jamassa        ja pupukuvioita  pyjamassa


[Chorus]
   1 + 2 + 3 + 4 +   1 + 2 + 3 + 4 +   1 + 2 + 3 + 4 +   1 + 2 + 3 + 4 +
   B5                E5                D                 A
e|-----------------|-----------------|-----------------|-----------------|
B|-----------------|-------0---------|-----------------|-----------------|
G|-4---------------|-----------2-0---|-----------------|-----------------|
D|-4---------------|-2-------------4-|-0---0-0-4h5-4-0-|-----------------|  (x2)
A|-2---------------|-2---------------|-----------------|-0---0-0-4h5-4-0-|
E|-----------------|-0---------------|-----------------|-----------------|
  Jee jee           jeee              jee jee jee jee   jee
  Jee jee           jeee              jee jee jee jee   jee


[Bridge]
   1 + 2 + 3 + 4 +   1 + 2 + 3 + 4 +
   B5      E5        A5      E5        
e|-----------------|-----------------|
B|-----------------|-----------------|
G|-----------------|-----------------|
D|-4-4-4-4---------|-2-2-2-2---------|  (x4)
A|-2-2-2-2-2-2-2-2-|-0-0-0-0-2-2-2-2-|
E|---------0-0-0-0-|---------0-0-0-0-|

   1 + 2 + 3 + 4 +   1 + 2 + 3 + 4 +
   A5                B5                
e|-----------------|-----------------|
B|-----------------|-----------------|
G|-----------------|-----------------|
D|-2-2-2-2-2-2-2-2-|-4-4-4-4-4-4-4-4-|  (x3)
A|-0-0-0-0-0-0-0-0-|-2-2-2-2-2-2-2-2-|
E|-----------------|-----------------|

   1 + 2 + 3 + 4 +   1 + 2 + 3 + 4 +   1 + 2 + 3 + 4 +   1 + 2 + 3 + 4 +
 D#5 E5            D#5 E5            D#5 E5            D#5 E5
e|-----------------|-----------------|-----------------|-----------------|
B|-----------------|-----------------|-----------------|-----------------|
G|-----------------|-----------------|-----------------|-----------------|
D|-8-9-9-9---9-9-9-|-8-9-9-9---9-9-9-|-8-9-9-9-7-9-9-9-|-8-9-9-9---9-9-9-|
A|-6-7-7-7---7-7-7-|-6-7-7-7---7-7-7-|-6-7-7-7-6-7-7-7-|-6-7-7-7---7-7-7-|
E|-----------------|-----------------|-----------------|-----------------|


[Solo]
   1 + 2 + 3 + 4 +   1 + 2 + 3 + 4 +   1 + 2 + 3 + 4 +   1 + 2 + 3 + 4 +
   B5                E5                D5                A5
e|-----------------|-----------------|-----------------|-----------------|
B|-----------------|-----------------|-----------------|-----------------|
G|-----------------|-----------------|-----------------|-----------------|
D|-4-4-4-4-4-4-4-4-|-----------------|-7-7-7-7-7-7-7-7-|-----------------|  (x4)
A|-2-2-2-2-2-2-2-2-|-2-2-2-2-2-2-2-2-|-5-5-5-5-5-5-5-5-|-7-7-7-7-7-7-7-7-|
E|-----------------|-0-0-0-0-0-0-0-0-|-----------------|-5-5-5-5-5-5-5-5-|


[Chorus]
   1 + 2 + 3 + 4 +   1 + 2 + 3 + 4 +   1 + 2 + 3 + 4 +   1 + 2 + 3 + 4 +
   B5                E5                D                 A
e|-----------------|-----------------|-----------------|-----------------|
B|-----------------|-------0---------|-----------------|-----------------|
G|-4---------------|-----------2-0---|-----------------|-----------------|
D|-4---------------|-2-------------4-|-0---0-0-4h5-4-0-|-----------------|  (x2)
A|-2---------------|-2---------------|-----------------|-0---0-0-4h5-4-0-|
E|-----------------|-0---------------|-----------------|-----------------|
  Jee jee           jeee              jee jee jee jee   jee
  Jee jee           jeee              jee jee jee jee   jee


[Verse 3]
   1 + 2 + 3 + 4 +   1 + 2 + 3 + 4 +   1 + 2 + 3 + 4 +   1 + 2 + 3 + 4 +
   B5                E5                D5                A5
e|-----------------|-----------------|-----------------|-----------------|
B|-----------------|-----------------|-----------------|-----------------|
G|-----------------|-----------------|-----------------|-----------------|
D|-4-4-4-4-4-4-4-4-|-----------------|-7-7-7-7-7-7-7-7-|-----------------|  (x2)
A|-2-2-2-2-2-2-2-2-|-2-2-2-2-2-2-2-2-|-5-5-5-5-5-5-5-5-|-7-7-7-7-7-7-7-7-|
E|-----------------|-0-0-0-0-0-0-0-0-|-----------------|-5-5-5-5-5-5-5-5-|
Nyt olemme ... rock-bussinekseen  nyt kävelemme kurkoina Epekseen
On askeleemme näin  kepeä         kun tottelemme vain    Epeä


[Chorus]
   1 + 2 + 3 + 4 +   1 + 2 + 3 + 4 +   1 + 2 + 3 + 4 +   1 + 2 + 3 + 4 +
   B5                E5                D                 A
e|-----------------|-----------------|-----------------|-----------------|
B|-----------------|-------0---------|-----------------|-----------------|
G|-4---------------|-----------2-0---|-----------------|-----------------|
D|-4---------------|-2-------------4-|-0---0-0-4h5-4-0-|-----------------|  (x2)
A|-2---------------|-2---------------|-----------------|-0---0-0-4h5-4-0-|
E|-----------------|-0---------------|-----------------|-----------------|
  Jee jee           jeee              jee jee jee jee   jee
  Jee jee           jeee              jee jee jee jee   jee


[Bridge]
   1 + 2 + 3 + 4 +   1 + 2 + 3 + 4 +
   B5      E5        A5      E5        
e|-----------------|-----------------|
B|-----------------|-----------------|
G|-----------------|-----------------|
D|-4-4-4-4---------|-2-2-2-2---------|  (x4)
A|-2-2-2-2-2-2-2-2-|-0-0-0-0-2-2-2-2-|
E|---------0-0-0-0-|---------0-0-0-0-|

   1 + 2 + 3 + 4 +   1 + 2 + 3 + 4 +
   A5                B5                
e|-----------------|-----------------|
B|-----------------|-----------------|
G|-----------------|-----------------|
D|-2-2-2-2-2-2-2-2-|-4-4-4-4-4-4-4-4-|  (x3)
A|-0-0-0-0-0-0-0-0-|-2-2-2-2-2-2-2-2-|
E|-----------------|-----------------|

   1 + 2 + 3 + 4 +   1 + 2 + 3 + 4 +   1 + 2 + 3 + 4 +   1 + 2 + 3 + 4 +
 D#5 E5            D#5 E5            D#5 E5            D#5 E5
e|-----------------|-----------------|-----------------|-----------------|
B|-----------------|-----------------|-----------------|-----------------|
G|-----------------|-----------------|-----------------|-----------------|
D|-8-9-9-9---9-9-9-|-8-9-9-9---9-9-9-|-8-9-9-9-7-9-9-9-|-8-9-9-9---9-9-9-|
A|-6-7-7-7---7-7-7-|-6-7-7-7---7-7-7-|-6-7-7-7-6-7-7-7-|-6-7-7-7---7-7-7-|
E|-----------------|-----------------|-----------------|-----------------|


[Chorus]
   1 + 2 + 3 + 4 +   1 + 2 + 3 + 4 +   1 + 2 + 3 + 4 +   1 + 2 + 3 + 4 +
   B5                E5                D                 A
e|-----------------|-----------------|-----------------|-----------------|
B|-----------------|-------0---------|-----------------|-----------------|
G|-4---------------|-----------2-0---|-----------------|-----------------|
D|-4---------------|-2-------------4-|-0---0-0-4h5-4-0-|-----------------|  (x6)
A|-2---------------|-2---------------|-----------------|-0---0-0-4h5-4-0-|
E|-----------------|-0---------------|-----------------|-----------------|
  Jee jee           jeee              jee jee jee jee   jee
  Jee jee           jeee              jee jee jee jee   jee
  Jee jee           jeee              jee jee jee jee   jee
  Jee jee           jeee              jee jee jee jee   jee
  Jee jee           jeee              jee jee jee jee   jee
  Jee jee           jeee              jee jee jee jee   jee


*****************
| h   Hammer-on

            
            
Suggest correction
Creating personal tab
Creating personal tab
You can edit any tab online and save it as your Personal.

You can edit, replace or remove any tab part or add personal notes – all changes will be seen only by you.

Personal tabs can be accessed anytime from any device, even offline.
Learn more »
Give kudos to tab author, rate the tab!
1 2 3 4 5
comments
print report bad tab
guest
You may want to rate the tab now too:
select rating
Wanna post a correction for this tab? Suggest correction