Oops, an error
Loading. Please wait.

Ang Huling El Bimbo tab

version 5
version 5

Whole song

Interactive

97 views 6 this week
no commentswrite comment
1 2 3 4 5
3 more votes to show rating
add to favorites
×
Save as Personal and add changes to this tab that will be seen only by you. Learn more ›
×
You can save this tab as Personal to edit and correct it or add notes. All changes will be seen only by you. Learn more »
launch autoscroll
font size
0
reset
how to read this tab
guitar tuner
edit
Autoscroll
slow
fast
+/-
esc
set tempo
stop
Video tutorial for this tab:
https://youtu.be/BnsCHrekahI

[Intro]
e|-----------|(6x)|-----------|(6x)|-----------|(6x)
B|-----------|    |-----------|    |-----------|
G|-------0---|    |-------2---|    |-------5---|
D|---0h2-----|    |---2h5-----|    |---5h7-----|
A|-----------|    |-----------|    |-----------|
E|-----------|    |-----------|    |-----------|

e|---------------------|
B|---0h1p0-------------|
G|---------2-0---------|
D|-------------0h2-0---|
A|---------------------|
E|---------------------|

[Verse 1]
e|---3---3---3---3------------------------------------------------|
B|---3---2---1---0------------------------------------------------|
G|---0---0---0---0------------------------------------------------|
D|----------------------------------------------------------------|
A|----------------------------------------------------------------|
E|----------------------------------------------------------------|

e|---0---3--------------------------------------------------------|
B|---0---3---5----------------------------------------------------|
G|---0---4---5----------------------------------------------------|
D|---2---5---5-------4-4-7-7-9-9-10-10-9-9-7-7-5-5----------------|
A|---2---5---3---5-5----------------------------------------------|
E|---0---3--------------------------------------------------------|

e|---3------------------------------------------------------------|
B|---3---5--------------------------------------------------------|
G|---4---5--------------------------------------------------------|
D|---5---5-------4-4-7-7-9-9-10-10-12-12-14-14-16-16--------------|
A|---5---3---5-5--------------------------------------------------|
E|---3------------------------------------------------------------|

[Chorus]
e|----------------------------------------------------------------|
B|-----------------------------8-8/10-----------------------------|
G|-------------------------7-9------------------------------------|
D|-------------------5-7-9----------------------------------------|
A|-----------5-5-7------------------------------------------------|
E|---3-3h5/7------------------------------------------------------|

e|--------------12-12-10-10-8--8--7-7-----------------------------|
B|---10/13-13---13-13-12-12-10-10-8-8-----------------------------|
G|----------------------------------------------------------------|
D|----------------------------------------------------------------|
A|----------------------------------------------------------------|
E|----------------------------------------------------------------|

[Verse 2]
e|----------------------------------------------------------------| (3x)
B|----------------------------------------------------------------|
G|-------0--------------------------------------------------------|
D|---0h2----------------------------------------------------------|
A|----------------------------------------------------------------|
E|----------------------------------------------------------------|

e|----------------------------------------------------------------|
B|----------------------------------------------------------------|
G|---2h4-2-0-----0-----0------------------------------------------|
D|-----------0h2---0h2--------------------------------------------|
A|-----------------------0h2--------------------------------------|
E|---------------------------3------------------------------------|

e|----------------------------------------------------------------|
B|----------------------------------------------------------------|
G|-------------5/6-------4-5---5-7-5-4----------------------------|
D|-----------------7---7---------------5--------------------------|
A|---------5-7-3/4-------2-3---3-5-3-2----------------------------|
E|---3-5/7---------5---5---------------3--------------------------|

e|----------------------------------------------------------------|
B|----------------------------------------------------------------|
G|---------------5/6-------4-5---5-7-9-12-------------------------|
D|---5---------------7---7----------------------------------------|
A|-----------5-7-3/4-------2-3---3-5-7-10-------------------------|
E|---3-3-5/7---------5---5----------------------------------------|

[Verse 3]
e|--------------------------12/15---------------------------------|
B|---15brb------14-15brb-13---------------------------------------|
G|---------12---------------------12brb---------------------------|
D|----------------------------------------------------------------|
A|----------------------------------------------------------------|
E|----------------------------------------------------------------|

e|-----3-----3---3------------------------------------------------|
B|---3---3-------3------------------------------------------------|
G|---------0-----0------------------------------------------------|
D|----------------------------------------------------------------|
A|----------------------------------------------------------------|
E|----------------------------------------------------------------|

e|-----3-----3---3------------------------------------------------|
B|---2---2-------2------------------------------------------------|
G|---------0-----0------------------------------------------------|
D|----------------------------------------------------------------|
A|----------------------------------------------------------------|
E|----------------------------------------------------------------|

e|-----3-----3---3------------------------------------------------|
B|---1---1-------1------------------------------------------------|
G|---------0-----0------------------------------------------------|
D|----------------------------------------------------------------|
A|----------------------------------------------------------------|
E|----------------------------------------------------------------|

e|-----3-----3---3------------------------------------------------|
B|---0---0-------0------------------------------------------------|
G|---------0-----0------------------------------------------------|
D|----------------------------------------------------------------|
A|----------------------------------------------------------------|
E|----------------------------------------------------------------|

[Solo part 1]
e|---7-7-7-7-7-7\-------------------------------------------------|
B|---8-8-8-8-8-8\-------------------------------------------------|
G|----------------------------------------------------------------|
D|----------------------------------------------------------------|
A|----------------------------------------------------------------|
E|----------------------------------------------------------------|

e|----------------------------------------------------------------| (3x)
B|----------------------------------------------------------------|
G|---4-5-6-7—--7brb-6-----4-5-7-7brb------------------------------|
D|--------------------7--------------5----------------------------|
A|----------------------------------------------------------------|
E|----------------------------------------------------------------|

e|----------------------------------------------------------------|
B|----------------------------------------------------------------|
G|---4-5-6-7------------------------------------------------------|
D|----------------------------------------------------------------|
A|----------------------------------------------------------------|
E|----------------------------------------------------------------|

e|----------------------------------------------------------------| (3x)
B|----------------------------------------------------------------|
G|---2b-0-0—--2b-0-0---2b-0---------------------------------------|
D|----------------------------------------------------------------|
A|----------------------------------------------------------------|
E|----------------------------------------------------------------|

e|----------------------------------------------------------------|
B|----------------------------------------------------------------|
G|---2brb-0-2-0---------------------------------------------------|
D|--------------2-0-2-0-------------------------------------------|
A|----------------------2-0-2-------------------------------------|
E|----------------------------3-----------------------------------|

e|----------------------------------------------------------------| (3x)
B|----------------------------------------------------------------|
G|---2b-0-0—--2b-0-0---2b-0---------------------------------------|
D|----------------------------------------------------------------|
A|----------------------------------------------------------------|
E|----------------------------------------------------------------|

e|----------------------------------------------------------------|
B|----------------------------------------------------------------|
G|---2brb-0-2-0---------------------------------------------------|
D|--------------2-0-2-0-------------------------------------------|
A|----------------------2-0-2-------------------------------------|
E|----------------------------3-----------------------------------|

e|----------------------------------------------------------------| (8x)
B|---8---8-8-8----------------------------------------------------|
G|----------------------------------------------------------------|
D|----------------------------------------------------------------|
A|----------------------------------------------------------------|
E|----------------------------------------------------------------|

e|-------------------5-----7--------------------------------------|
B|------------8---------------------------------------------------|
G|---4-5-6-7----7-6---6-5----5-4----------------------------------|
D|----------------------------------------------------------------|
A|----------------------------------------------------------------|
E|----------------------------------------------------------------|

[Outro]
e|----------------------------------------------------------------|
B|-----8-7-5------------------------------------------------------|
G|---4-------4----------------------------------------------------|
D|-------------5--------------------------------------------------|
A|----------------------------------------------------------------|
E|----------------------------------------------------------------|


************************************

| h   Hammer-on
| p   Pull-off
| r   Release
| b   Bend
| br  Bend release
| pb  Pre-bend
| pbr Pre-bend release
| /   Slide up
| \   Slide down

************************************



************************************

| h  Hammer-on
| p  Pull-off
| /  Slide up
| \  Slide down
| b  Bend
|    
| (  
| brb 
| x) 
| — 

************************************

            
            
Suggest correction
Creating personal tab
Creating personal tab
You can edit any tab online and save it as your Personal.

You can edit, replace or remove any tab part or add personal notes – all changes will be seen only by you.

Personal tabs can be accessed anytime from any device, even offline.
Learn more »
Give kudos to tab author, rate the tab!
1 2 3 4 5
comments
print report bad tab
guest
You may want to rate the tab now too:
select rating
Wanna post a correction for this tab? Suggest correction