Oops, an error
Loading. Please wait.

Kailan bass

version 5
version 5
322 views 3 this week
no commentswrite comment
1 2 3 4 5
3 more votes to show rating
add to favorites
×
Save as Personal and add changes to this tab that will be seen only by you. Learn more ›
×
You can save this tab as Personal to edit and correct it or add notes. All changes will be seen only by you. Learn more »
launch autoscroll
font size
0
reset
guitar tuner
edit
Autoscroll
slow
fast
+/-
esc
set tempo
stop
Author
Difficulty
-------------------------------------------------------------------------------
                             SONG NAME - Band Name
-------------------------------------------------------------------------------
Tabbed by: tanchingco darwin
E-mail: tanchingco_darwin@yahoo.com


Tuning: standard tunning E,A,D,G

INTRO
G|------------------------------------------------|
D|------------0-2-3-3-3-3-0-2---------------------|
A|---3-3-3-3-------------------3-3-3-3-2-0--------|
E|-----------------------------------------3------|

VERSE 1

Kailan mo ako hahagkan    
Matagal na akong naghihintay
Nakadungaw sa bintana 
Mga dahon lang ang kumakaway...
G|----------------------------------------------------|
D|------------------------------7--7--6--5--3--2------|
A|--3-----3--5--6----7--6--5--------------------------|
E|----------------------------------------------------|

G|----------------------------------------------------|
D|------------------------------7--7--6--5--3--2------|
A|--3-----3--5--6----7--6--5--------------------------|
E|----------------------------------------------------|

G|----------------------------------------------------|
D|------------------------------7--7--6--5--3--2------|
A|--3-----3--5--6----7--6--5--------------------------|
E|----------------------------------------------------|

G|-------------------------------------------------------------|
D|------------------------------7--7--6--5--5/7--5-----5-------|
A|--3-----3--5--6----7--6--5------------------------7-----7----|
E|-------------------------------------------------------------|

REFRAIN
kailan ko mararamdaman ang pagdampi ng iyong labi...
G|---------------------------------------------------------------------------|
D|---------------------------------------------------------------------------|
A|---7-7-7-7----7-7-7-7-----5-5-5-5----5-5-5-5-----8-8-8-8----5-5-5-5--------|
E|---------------------------------------------------------------------------|

G|------------------------------------------------|
D|------------------------------------------------|
A|---7-7-7-7-----5-5-5-5----8-8-8-8---------------|
E|---------------------------------------3~-------|

VERSE 2

Kailan ako tatahan 
Higpit ng yakap ng ‘yong dibdib 
Nakatingin ako sa salamin 
May guhit ang noo’t mapait ang ngiti...
G|----------------------------------------------------|
D|------------------------------7--7--6--5--3--2------|
A|--3-----3--5--6----7--6--5--------------------------|
E|----------------------------------------------------|

G|-------------------------------------------------------------|
D|------------------------------7--7--6--5--5/7--5-----5-------|
A|--3-----3--5--6----7--6--5------------------------7-----7----|
E|-------------------------------------------------------------|

G|----------------------------------------------------|
D|------------------------------7--7--6--5--3--2------|
A|--3-----3--5--6----7--6--5--------------------------|
E|----------------------------------------------------|

G|-----------------------------------------------------------|
D|------------------------------9--7--5--5/7--5-----5--------|
A|--3-----3--5--6----7--6--5---------------------7------7----|
E|-----------------------------------------------------------|

(REPEAT REFRAIN)


BRIDGE
kailan ko masisilayan sa araw araw aking mahal...
G|-------------------------------------------------------------------------------------------|
D|-------------------------------------------------------------------------------------------|
A|---------3--1---3--1---3-1-3-1--1-3-1---------------------3--1---3--1---3-1-3-1--1-3-1-----|
E|---2~---------------------------------------------2~---------------------------------------|

mula paggising hanngang sa pag-idlip...
G|-------------------------------------------------------|
D|-------------------------------------------------------|
A|----------5--4--3-----5--3--3-3-3-3---5--3--3-3-3-3----|
E|----3--------------------------------------------------|

kagandahan mo'y walang batid.....
G|---------------------------------------------------------------------------|
D|---------------------------------------------------------------------------|
A|----------5--4--3------5--3--3-3-3-3-3-3-3-3----8-8-8-8-8-8-8-8------------|
E|----3----------------------------------------------------------------3~----|

(REPEAT VERSE 2 AND THEN REFRAIN)

ENDING
Kailan ako lalaya 
Sa anino ng pag-iisa 
Mga rehas langang tanaw 
Nanginginig sa seldang
G|---------------------------------------------------------------------------|
D|---------------------------------------------------------------------------|
A|---------------------------------------------------------------------------|
E|---------------------------------------------------------------------------|

G|---------------------------------------------------------------------------|
D|---------------------------------------------------------------------------|
A|---------------------------------------------------------------------------|
E|---------------------------------------------------------------------------|

OUTRO
G|------------------------------------------------|
D|------------0-2-3-3-3-3-0-2---------------------|
A|---3-3-3-3-------------------3-3-3-3-2-0--------|
E|-----------------------------------------3------|





| /  slide up
| \  slide down
| h  hammer-on
| p  pull-off
| ~  vibrato
| +  harmonic
| x  Mute note
===============================================================================

            
            
Suggest correction
Creating personal tab
Creating personal tab
You can edit any tab online and save it as your Personal.

You can edit, replace or remove any tab part or add personal notes – all changes will be seen only by you.

Personal tabs can be accessed anytime from any device, even offline.
Learn more »
Give kudos to tab author, rate the tab!
1 2 3 4 5
comments
print report bad tab
guest
You may want to rate the tab now too:
select rating
Wanna post a correction for this tab? Suggest correction