Oops, an error
Loading. Please wait.

Magasin bass

version 2
version 2

Interactive

9,242 views 27 this week
no commentswrite comment
1 2 3 4 5
x 4
add to favorites
×
Save as Personal and add changes to this tab that will be seen only by you. Learn more ›
×
You can save this tab as Personal to edit and correct it or add notes. All changes will be seen only by you. Learn more »
launch autoscroll
font size
0
reset
guitar tuner
edit
Autoscroll
slow
fast
+/-
esc
set tempo
stop
Author
Tabbed By : ROY TELPO
e-mail: roytelpo@yahoo.com

SONG: Magasin by ERASERHEADS (BASS TAB)

Tuning: Standard Tuning EADG
(note: original tuning is ½ step lower, this tab is adjusted for standard tuning)

b  = Break
~  = Let Ring
p  = Pull
/  = Slide
h  = Hammer


Intro:

Ooooohhh...
G|-----------------------------------------------|
D|-----------------------------------------------|
A|--2-2b-0-2~~---4p2-0-0--6-6b-0-6~~---8p6-0-0---|
E|-----------------------------------------------|

Ooohhhh.....
G|-----------------------------------------|
D|------6/8-9-8h9p8------------------------|
A|----6-------------9----------------------|
E|--4--------------------0~~~------/12~~---|

First Verse:

Kita kita      sa isang magasin....       Buhok mo’y green..
G|-------------------|-------------------|------------------|
D|---no licks here, so puff your burning cigar or sumthin---|
A|-------------------|-------------------|------------------|
E|-------------------|-------------------|------------------|

Isang tindahan..      ..baclaran..       ..napatingin..
G|-------------------|-------------------|------------------|
D|-------------------|-------------------|--6~~-------------|
A|--2~~--------------|--/6~~-------------|------------------|
E|-------------------|-------------------|------------------|

Sa yong kagandahan
G|-------------------|
D|--/2~~-------------|
A|-------------------|
E|-------------------|

Riff before Second Verse:

G|-------------------|-------------------|
D|-------------------|-------------------|
A|--6h7-6------------|-------------------|
E|--------7—2~~------|--/12--------------|

Naaalala mo pa ba..
G|-----------------------------------------------|
D|-----------------------------------------------|
A|--2-2b-0-2~~---4p2-0-0--6-6b-0-6~~---8p6-0-0---|
E|-----------------------------------------------|

Di ko inakalang, sisikat ka..
G|-------------------------------------------|
D|------6/8-9-8h9p8----------2/4-2-2h4p2-----|
A|----6-------------9------2-------------4---|
E|--4--------------------0-------------------|

Tinawanan pa kita..
G|-----------------------------------------------|
D|-----------------------------------------------|
A|--2-2b-0-2~~---4p2-0-0--6-6b-0-6~~---8p6-0-0---|
E|-----------------------------------------------|

Medyo pangit ka pa noon..
G|----------------------|
D|------6/8-9-8h9p8-----|
A|----6-------------9---|
E|--4-------------------|

ngunit ngayon..
G|------------------------------------------|
D|------------------------------------------|
A|------------------------------------------|
E|--0-0-0-0-0-0-0-0-12-12-12-14-15-14-12/0--|

Chorus:

Iba na ang yong ngiti..
G|-----------------------------------------------|
D|-----------------------------------------------|
A|--2-2b-0-2~~---4p2-0-0--6-6b-0-6~~---8p6-0-0---|
E|-----------------------------------------------|

Nagbago nang lahat sayo..
G|-------------------------------------------|
D|------6/8-9-8h9p8----------2/4-2-2h4p2-----|
A|----6-------------9------2-------------4---|
E|--4--------------------0-------------------|

Sanay hindi nakita..
G|-----------------------------------------------|
D|-----------------------------------------------|
A|--2-2b-0-2~~---4p2-0-0--6-6b-0-6~~---8p6-0-0---|
E|-----------------------------------------------|

Pagkat kulang ang
G|----------------------|
D|------6/8-9-8h9p8-----|
A|----6-------------9---|
E|--4-------------------|

Dala kong peraaaaaaaaaaaaaaaaaaaaa...
G|------------------------------------------|
D|------------------------------------------|
A|------------------------------------------|
E|--0-0-0-0-0-0-0-0-12-12-12-14-15-14-12/0--|

Na pangbile..         ..sa mukha mong maganda..
G|--------------------------------------------|
D|--------------------------------------------|
A|------9~~~------10~~~-------11~~~------7~~--|
E|--5/9------5/10--------5/11--------5/7------|


Do the Riff before 3rd verse (same as the riff before Second Verse)

Third Verse: (Riffs are the same as the Second Verse)

Chorus: (same as riff as the first chorus)

Ad Lib: (same riff as the chorus)

Fourth Verse: (same riffs as the previous verses)

Chorus: (Repeat 2 times, same chorus riffs)

Fifth Verse:

Nasan ka na kaya..
G|-------------------|-------------------|------------------|
D|-------------------|-------------------|--6~~-------------|
A|--2~~--------------|--/6~~-------------|------------------|
E|-------------------|-------------------|------------------|

Ay centerfold..
G|-------------------8h9-8--------------|
D|--/2~~------------------9-------------|
A|-------------------------9--6h7-6-----|
E|---------------------------------7-0--|


Ka naaahhhhh...
G|-----------------------------------------------|
D|-----------------------------------------------|
A|--2-2b-0-2~~---4p2-0-0--6-6b-0-6~~---8p6-0-0---|
E|-----------------------------------------------|

G|----------------------|
D|------6/8-9-8h9p8-----|
A|----6-------------9---|
E|--4-------------------|

G|------------------------------------------|
D|------------------------------------------|
A|------------------------------------------|
E|--0-0-0-0-0-0-0-0-12-12-12-14-15-14-12/0--|

Ooooooohhhhhh.. (outro)
G|-----------------------------------------------|
D|-----------------------------------------------|
A|--2-2b-0-2~~---4p2-0-0--6-6b-0-6~~---8p6-0-0---|
E|-----------------------------------------------|

G|----------------------|
D|------6/8-9-8h9p8-----|
A|----6-------------9---|
E|--4-------------------|

G|------------------------------------------|
D|------------------------------------------|
A|------------------------------------------|
E|--0-0-0-0-0-0-0-0-12-12-12-14-15-14-12/0--|

~~~~~~~~~~~~~~~~~~~~END~~~~~~~~~~~~~~~~~~~~~~~~~~

            
            
Suggest correction
Creating personal tab
Creating personal tab
You can edit any tab online and save it as your Personal.

You can edit, replace or remove any tab part or add personal notes – all changes will be seen only by you.

Personal tabs can be accessed anytime from any device, even offline.
Learn more »
comments
print report bad tab
guest
You may want to rate the tab now too:
select rating
Wanna post a correction for this tab? Suggest correction