Oops, an error
Loading. Please wait.

Maling Akala bass

2,855 views 18 this week
no commentswrite comment
1 2 3 4 5
3 more votes to show rating
add to favorites
×
Save as Personal and add changes to this tab that will be seen only by you. Learn more ›
×
You can save this tab as Personal to edit and correct it or add notes. All changes will be seen only by you. Learn more »
launch autoscroll
font size
0
reset
guitar tuner
edit
Autoscroll
slow
fast
+/-
esc
set tempo
stop
Author
Band/Artist: Eraserheads
Song: Maling Akala

Please watch this. Thanks!
https://www.youtube.com/watch?v=4OTUCbnx5jU

Intro: 
   C           G    C           Em   Am            D 
G|--------------------------------------------------------------|
D|------------------------------2-2----------------0-0-4--5-5-7-|
A|-3--3-3--2-5------3--3-3--2-5------0-0-2--3-3-4---------------|
E|-------------3-3----------------------------------------------|
   D7
G|-4-4-5--6-6-7\------------------------------------------------|
D|--------------------------------------------------------------|
A|--------------------------------------------------------------|
E|--------------------------------------------------------------|         

 
Verse 1:

G|--------------------------------------------------------------|
D|--------------------------------------------------------------|
A|--------------------------------------------------------------|
E|--------------------------------------------------------------|
       G       D       Em   C
May mga kumakalat na balita 

G|-----------------------------7h9------------------------------|
D|---------------------------------7h9--------------------------|
A|-------------------------------------5h7\---------------------|
E|--------------------------------------------------------------|
       G       D              Em
Na ang misis ni kuwan ay madaling makuha

G|--------------------------------------------------------------|
D|--------------------------------------------------------------|
A|--------------------------------------------------------------|
E|--------------------------------------------------------------|
  C      G       C           G
Bago maniwala, magisip-isip ka muna

G|--------------------------------------------------------------|
D|--------------------------------------------------------------|
A|------------------------------------5--5-5--5-7-5-------------|
E|--------------------------------------------------7-5---------| 
  (Am)                   D              
Marami ang namamatay sa maling akala...

Verse 2:
   G          D        Em       C
G|-------------------------4------------------------------------|
D|------------0-0-2-0--2-2---2---------2------------------------|
A|------2-5---------------------3-3-3----3----------------------|
E|-3--3---------------------------------------------------------|
Nung ako'y musmos pa lamang ay takot sa multo

   G        D        Em
G|--------------------------------------------------------------|
D|----------0-0-2-0--2------------------------------------------|
A|------2-5-----------------------------------------------------|
E|-3--3---------------------------------------------------------|
Nung ako'y naging binata, sa erpat ng syota ko
   C           G    C          G
G|--------------------------------------------------------------|
D|------------------------------2-2-----------------------------|
A|-3--3-3--2-5------3--3-3--2-5---------------------------------|
E|-------------3-3----------------------------------------------|        
Ngayon ay may asawa at meron ng pamilya

   Am            D             
G|-----------------------------4-4-5--6-6-7---------------------|
D|---------------0-0-4--5-5-7-----------------------------------|
A|-0-0-2--3-3-4-------------------------------------------------|
E|--------------------------------------------------------------|
Wala na ngang multo ngunit takot sa asawa ko 

Refrain: 
   Bm             Am
G|----------4-2-4-----------2---2-------------------------------|
D|----------------------------2---------------------------------|
A|-2--2-2-2--------0--0-0-0-------------------------------------|
E|--------------------------------------------------------------|
'Di mo na kailangang mag-alinlangan 
   Bm             Am
G|----------4-2-4-----------2---2-------------------------------|
D|----------------------------2---------------------------------|
A|-2--2-2-2--------0--0-0-0-------------------------------------|
E|--------------------------------------------------------------|       
Kung tama ang gagawin mo 

   Bm             Am
G|----------4-2-4-----------2---2-------------------------------|
D|----------------------------2---------------------------------|
A|-2--2-2-2--------0--0-0-0-------------------------------------|
E|--------------------------------------------------------------|
Basta't huwag kalimutang magdahan-dahan 
   Bm             C
G|----------4-2-4-----------------------------------------------|
D|--------------------------------------------------------------|
A|-2--2-2-2---------2--3-3-3-3-3-3-3-3--------------------------|
E|--------------------------------------------------------------|
Kung di sigurado sa kalalabasan 
   Eb               D               
G|--------------------------------------------------------------|
D|--------------------------------------------------------------|
A|-6-6-6-6-6-6-6-6--5-5-5-5-5-5-5-5--5--5-5--5-7-5--------------|
E|-------------------------------------------------7-5----------|
Kalalabasan ng binabalak mo...
Chorus:
   G          D        Em       C
G|-------------------------4------------------------------------|
D|------------0-0-2-0--2-2---2---------2------------------------|
A|------2-5---------------------3-3-3----3----------------------|
E|-3--3---------------------------------------------------------|
Maliit na butas, lumalaki 

   G        D        Em
G|--------------------------------------------------------------|
D|----------0-0-2-0--2------------------------------------------|
A|------2-5-----------------------------------------------------|
E|-3--3---------------------------------------------------------|
Konting gusot, dumadami 

   C           G    C           Em
G|--------------------------------------------------------------|
D|------------------------------2-2-----------------------------|
A|-3--3-3--2-5------3--3-3--2-5---------------------------------|
E|-------------3-3----------------------------------------------|        
'Di mo maibabaon sa limot at bahala 

   Am            D             
G|-----------------------------4-4-5--6-6-7---------------------|
D|---------------0-0-4--5-5-7-----------------------------------|
A|-0-0-2--3-3-4-------------------------------------------------|
E|--------------------------------------------------------------|
Kapag nabulag ka..ha...ng maling akala 

Adlib: 
G - D - Em - C
G - D - Em
C - G - C - G - Am - D 

Verse 3:
   G          D        Em       C
G|-------------------------4------------------------------------|
D|------------0-0-2-0--2-2---2---------2------------------------|
A|------2-5---------------------3-3-3----3----------------------|
E|-3--3---------------------------------------------------------|
Nasa'n na ba ako, kaninong kama 'to

   G        D        Em
G|--------------------------------------------------------------|
D|----------0-0-2-0--2------------------------------------------|
A|------2-5-----------------------------------------------------|
E|-3--3---------------------------------------------------------|
Ilang ulit na bang nagigising sa ibang kuwarto

   C           G    C          G
G|--------------------------------------------------------------|
D|------------------------------2-2-----------------------------|
A|-3--3-3--2-5------3--3-3--2-5---------------------------------|
E|-------------3-3----------------------------------------------|        
Naglayas sa bahay, akala madali ang buhay


   Am            D             
G|-----------------------------4-4-5--6-6-7---------------------|
D|---------------0-0-4--5-5-7-----------------------------------|
A|-0-0-2--3-3-4-------------------------------------------------|
E|--------------------------------------------------------------|
Ngayon ay nagsisisi dahil 'di nakapagtapos
Refrain: 
   Bm             Am
G|----------4-2-4-----------2---2-------------------------------|
D|----------------------------2---------------------------------|
A|-2--2-2-2--------0--0-0-0-------------------------------------|
E|--------------------------------------------------------------|
'Di mo na kailangang mag-alinlangan 
   Bm             Am
G|----------4-2-4-----------2---2-------------------------------|
D|----------------------------2---------------------------------|
A|-2--2-2-2--------0--0-0-0-------------------------------------|
E|--------------------------------------------------------------|       
Kung tama ang gagawin mo 

   Bm             Am
G|----------4-2-4-----------2---2-------------------------------|
D|----------------------------2---------------------------------|
A|-2--2-2-2--------0--0-0-0-------------------------------------|
E|--------------------------------------------------------------|
Basta't huwag kalimutang magdahan-dahan 
   Bm             C
G|----------4-2-4-----------------------------------------------|
D|--------------------------------------------------------------|
A|-2--2-2-2---------2--3-3-3-3-3-3-3-3--------------------------|
E|--------------------------------------------------------------|
Kung di sigurado sa kalalabasan 
   Eb               D               
G|--------------------------------------------------------------|
D|--------------------------------------------------------------|
A|-6-6-6-6-6-6-6-6--5-5-5-5-5-5-5-5--5--5-5--5-7-5--------------|
E|-------------------------------------------------7-5----------|
Kalalabasan ng binabalak mo...
Chorus:
   G          D        Em       C
G|-------------------------4------------------------------------|
D|------------0-0-2-0--2-2---2---------2------------------------|
A|------2-5---------------------3-3-3----3----------------------|
E|-3--3---------------------------------------------------------|
Maliit na butas, lumalaki 

   G        D        Em
G|--------------------------------------------------------------|
D|----------0-0-2-0--2------------------------------------------|
A|------2-5-----------------------------------------------------|
E|-3--3---------------------------------------------------------|
Konting gusot, dumadami 

   C           G    C           Em
G|--------------------------------------------------------------|
D|------------------------------2-2-----------------------------|
A|-3--3-3--2-5------3--3-3--2-5---------------------------------|
E|-------------3-3----------------------------------------------|        
'Di mo maibabaon sa limot at bahala 

   Am            D             
G|-----------------------------4-4-5--6-6-7\--------------------|
D|---------------0-0-4--5-5-7-----------------------------------|
A|-0-0-2--3-3-4-------------------------------------------------|
E|--------------------------------------------------------------|
Kapag nabulag ka..ha...ng maling akala 

G|-12-----11-----9----------------------------------------------|
D|---------------------10-----9-------------------5-------------|
A|-----------------------------------------------------------7\-|
E|--------------------------------------------------------------|
May mga kumakalat na balita Na ang kaligtasa'y madaling makuha

G|--------------------------------------------------------------|
D|--------------------------------------------------------------|
A|--------------------------------------------------------------|
E|--------------------------------------------------------------|
Bago maniwala, magisip-isip ka muna

G|--------------------------------------------------------------|
D|--------------------------------------------------------------|
A|--------------------------------------------------------------|
E|----------------------------15/-------------------------------|
Marami ang namamata..hay sa maling akala 

Outro:
   G          D        Em       C
G|-------------------------4------------------------------------|
D|------------0-0-2-0--2-2---2---------2------------------------|
A|------2-5---------------------3-3-3----3----------------------|
E|-3--3---------------------------------------------------------| 
Maliit na butas, lumalaki 

   G          D        Em       C
G|-------------------------4------------------------------------|
D|------------0-0-2-0--2-2---2---------2------------------------|
A|------2-5---------------------3-3-3----3----------------------|
E|-3--3---------------------------------------------------------|
Konting gusot, dumadami 

(Repeat until fade)...

            
            
Suggest correction
Creating personal tab
Creating personal tab
You can edit any tab online and save it as your Personal.

You can edit, replace or remove any tab part or add personal notes – all changes will be seen only by you.

Personal tabs can be accessed anytime from any device, even offline.
Learn more »
Give kudos to tab author, rate the tab!
1 2 3 4 5
comments
print report bad tab
guest
You may want to rate the tab now too:
select rating
Wanna post a correction for this tab? Suggest correction