Oops, an error
Loading. Please wait.

Minsan tab

version 3
version 3

Whole song

70,291 views 48 this week
5 commentsread comments
1 2 3 4 5
x 17
add to favorites
×
Save as Personal and add changes to this tab that will be seen only by you. Learn more ›
×
You can save this tab as Personal to edit and correct it or add notes. All changes will be seen only by you. Learn more »
launch autoscroll
font size
0
reset
how to read this tab
guitar tuner
edit
Autoscroll
slow
fast
+/-
esc
set tempo
stop
Author
Title: MINSAN
Artist: Eraserheads
Jhonjon Sabalboro

[Verse]
   D                    DM7
Minsan sa may kalayaan tayo nagkatagpuan
Em                      Gm                              D-Dsus
May mga sariling gimik at kanya-kanyang hangad sa buhay

Sa ilalim ng iisang bubong mga sikretong ibinubulong

Kahit na anong mangyari kahit na saan ka man patungo

[Refrain]
        DM7   D7                        G
Ngunit ngayon kay bilis maglaho ng kahapon
Gm          D           Gm               A
Sana'y wag kalimutan ang ating mga pinagsamahan
    F#m            G         F#m        G
At kung sakaling gipitin ay laging iisipin
D              A          G      Gm
Na minsan tayo ay naging tunay na...

Magkaibigan

[adlib] D-DM7-D7-G Gm-D-Gm-A
        F#m-G-F#m-G
        D-A-G-Gm

e|-------------------------------------------------------------------------------|
B|----------------------------------------------------------------------7h87-----|
G|-------------------------------------------------------------7-7-7-9-7----9-7--|
D|---------------4h54--------------------------5h75---5-7-8-7-8------------------|
A|--/5---5-5-6-5-----5-----------------------------------------------------------|
E|--------------------5--5-5-7-8--8-8-8-7-5-3-5----------------------------------|

e|---------------------------------------14------------15------------|
B|-8-1010/11--10h11-10-13-11-10-8----------13-11-12-11---14-11-12-14-|
G|-------------------------------9-7-5-------------------------------|
D|-------------------------------------------------------------------|
A|-------------------------------------------------------------------|
E|-------------------------------------------------------------------|

e|-14-------------15------13-14-11-11h13--13-11-9-8-11-9-8-9------------|
B|----13-11-12-11----14-11-------------------------------------9h10^7-6-|
G|----------------------------------------------------------------------|
D|----------------------------------------------------------------------|
A|----------------------------------------------------------------------|
E|----------------------------------------------------------------------|

[Verse]
Minsan ay parang wala ng bukas sa buhay natin
Inuman hanggang sa magdamag na para bang tayo'y mauubusan
SA ilalim ng bilog ng buwan mga tiyan nati'y walang laman
Ngunit kahit na walang pera ang bawat gabi'y anong saya

[Refrain]
        DM7   D7                        G
Ngunit ngayon kay bilis maglaho ng kahapon
Gm          D           Gm               A
Sana'y wag kalimutan ang ating mga pinagsamahan
    F#m            G         F#m        G
At kung sakaling gipitin ay laging iisipin
D              A          G      Gm
Na minsan tayo ay naging tunay na...

E                       EM7
Minsan ay hindi mo na alam ang nangyayari
F#m                     Am                           E
Kahit na anong gawin lahat ng bagay ay mayroong hangganan
        EM7   E7                  A
Dahil ngayon tayo ay nilimot ng kahapon
Am         E        Am                     B
Di na mapipilitang buhayin ang ating pinagsamahan
        G#m hold        A hold    G#m hold      A hold
Ngunit kung sakaling mapadaan baka ikaw ay aking tawagan
        E         B          A         Am
Dahil minsan tayo ay naging tunay na...
            E-EM7-F#m-A-Am-E
Magka-ibigan

e|-------------------------------------------------------|
B|-------------------------------------------------------|
G|-------------------------------------------------------|
D|-------------------------------------------------------|
A|-/7--7-9-7-11--11-12-11-9--9-8-9-9/12--12/14-14-15-19--|
E|-------------------------------------------------------|

************************************

| h  Hammer-on
| /  Slide up

************************************

            
            
Suggest correction
Creating personal tab
Creating personal tab
You can edit any tab online and save it as your Personal.

You can edit, replace or remove any tab part or add personal notes – all changes will be seen only by you.

Personal tabs can be accessed anytime from any device, even offline.
Learn more »
comments
print report bad tab
5 comments total. Showing first comments.
0 reply
janjun 50 Apr 17, 2005 08:00 PM

luv u mhonna!!!

+1 reply
Jeffwinks 10 Dec 23, 2005 07:47 PM

ang panget

0 reply
babygreen2004 217 Oct 29, 2006 09:54 PM

panetz

guest
You may want to rate the tab now too:
select rating
Wanna post a correction for this tab? Suggest correction