Oops, an error
Loading. Please wait.

Toyang tab

version 4
version 4

Whole song

Interactive

52 views 3 this week
no commentswrite comment
1 2 3 4 5
3 more votes to show rating
add to favorites
×
Save as Personal and add changes to this tab that will be seen only by you. Learn more ›
×
You can save this tab as Personal to edit and correct it or add notes. All changes will be seen only by you. Learn more »
launch autoscroll
font size
0
reset
how to read this tab
guitar tuner
edit
Autoscroll
slow
fast
+/-
esc
set tempo
stop
Video tutorial for this tab:
https://youtu.be/hydiTbkvZN8

[Intro]
e|-----------------------------------------------------------|
B|-----------------------------------------------------------|
G|----------6------------------------------------------------|
D|----2/7-9---7----------------------------------------------|
A|--------------7-4-4/9\7------------------------------------|
E|-----------------------------------------------------------|

e|-----------------------------------------------------------|
B|-----------------------------------------------------------|
G|----------6------------------------------------------------|
D|----2/7-9---7-----------9-9-9\-----------------------------|
A|--------------7-4-4/9---7-7-7\-----------------------------|
E|-----------------------------------------------------------|

[Verse Riff]
e|-----------------------------------------------------------|
B|-----------------------------------------------------------|
G|-----------------------------------------------------------|
D|-----------------------------------------------------------|
A|----0-0-4-4-7-7---7----------------------------------------|
E|----------------9------------------------------------------|

e|-----------------------------------------------------------|
B|-----------------------------------------------------------|
G|-----------------------------------------------------------|
D|------------6-6---6----------------------------------------|
A|--------7-7-----7------------------------------------------|
E|----9-9----------------------------------------------------|

e|-----------------------------------------------------------|
B|-----------------------------------------------------------|
G|-----------------------------------------------------------|
D|------------4-4---4----------------------------------------|
A|--------5-5-----5------------------------------------------|
E|----7-7----------------------------------------------------|

e|-----------------------------------------------------------|
B|-----------------------------------------------------------|
G|-----------------------------------------------------------|
D|-----------------------------------------------------------|
A|-----------------------------------------------------------|
E|----0-0-2-0-4-0-4-0----------------------------------------|

[Guitar Fill]
e|-----------------------------------------------------------|
B|-----------------------------------------------------------|
G|-----------------------------------------------------------|
D|----7-7h9p7-6-6h7p6-4-4/-6---------------------------------|
A|-----------------------------------------------------------|
E|-----------------------------------------------------------|

e|-----------------------------------------------------------|
B|-----------------------------------------------------------|
G|-----------------------------------------------------------|
D|----2/7-7h9p7-6-6h7p6-4-4\-2-------------------------------|
A|-----------------------------------------------------------|
E|-----------------------------------------------------------|

e|-----------------------------------------------------------|
B|-----------------------------------------------------------|
G|-----------------------------------------------------------|
D|----7-7h9p7-6-6h7p6-4-4/-6---------------------------------|
A|-----------------------------------------------------------|
E|-----------------------------------------------------------|

[Solo 1]
e|-----------------------------------------------------------|
B|---------10-10-12b-----------------------------------------|
G|----9/11---------------------------------------------------|
D|-----------------------------------------------------------|
A|-----------------------------------------------------------|
E|-----------------------------------------------------------|

e|-----------------------------------------------------------|
B|----12-10----10--------------------------------------------|
G|----------11----11b-11rb-9----9----------------------------|
D|---------------------------11---11-9-----------------------|
A|-------------------------------------11\9-7----------------|
E|-----------------------------------------------------------|

e|-----------------------------------------------------------|
B|-------------------10----10—12p10----10-12p10----10--------|
G|--------------9-11----11----------11----------11----11-----|
D|---------9-11----------------------------------------------|
A|----9-11---------------------------------------------------|
E|-----------------------------------------------------------|

e|-----------------------------------------------------------|
B|------------------------------10-12-10---------------------|
G|----9/11\9-9-9--11-9----9--11------------------------------|
D|---------------------11------------------------------------|
A|-----------------------------------------------------------|
E|-----------------------------------------------------------|

e|-----------12-----12---------------------------------------|
B|----10-12b----12b----12pbr-10\-----------------------------|
G|-----------------------------------------------------------|
D|-----------------------------------------------------------|
A|-----------------------------------------------------------|
E|-----------------------------------------------------------|

[Bridge]
e|-----------------------------------------------------------|
B|------10-10/12-9-9/10-7-7/9-9------------------------------|
G|----9------------------------------------------------------|
D|-----------------------------------------------------------|
A|-----------------------------------------------------------|
E|-----------------------------------------------------------|

e|-----------------------------------------------------------|
B|------10-10/12-9-9/10-7-7\5-5------------------------------|
G|----9------------------------------------------------------|
D|-----------------------------------------------------------|
A|-----------------------------------------------------------|
E|-----------------------------------------------------------|

[Before Solo 2]
e|-----------------------------------------------------------|
B|----------10------10---------12-------12-------------------|
G|-----9/11----9/11------11/13----11/13----------------------|
D|-----------------------------------------------------------|
A|-----------------------------------------------------------|
E|-----------------------------------------------------------|

[Solo 2]
e|--------9-----9-----9--------------------------------------|
B|----12b---12b---12b---12b----------------------------------|
G|-----------------------------------------------------------|
D|-----------------------------------------------------------|
A|-----------------------------------------------------------|
E|-----------------------------------------------------------|

e|----12b-12b-12b-12—14b(hold)-14-14-14-14rb-----------------|
B|-------------------------------------------12--------------|
G|-----------------------------------------------------------|
D|-----------------------------------------------------------|
A|-----------------------------------------------------------|
E|-----------------------------------------------------------|

e|-----------------------------------------------------------|
B|----12b(hold)-12rbp10-10---10-12b(hold)-12rbp10-10---------|
G|-----------------------------------------------------------|
D|-----------------------------------------------------------|
A|-----------------------------------------------------------|
E|-----------------------------------------------------------|

e|-----------------------------------------------------------|
B|---------10-12p10------------------------------------------|
G|----9/11----------11p9-11p9-----9--------------------------|
D|----------------------------h11---11p9-11-9/11\9-9\7-7/9---|
A|-----------------------------------------------------------|
E|-----------------------------------------------------------|

e|-----------------------------------------------------------|
B|-----------------------------------------------------------|
G|------------9------9----9-----------9------9---------------|
D|----11p9h11---9h11---11-----11p9h11---9h11---9h11----------|
A|-----------------------------------------------------------|
E|-----------------------------------------------------------|

e|----------------------------------12-----------------------|
B|----12b-12b-12brbp10----12b(hold)----12-12-12rb------------|
G----------------------11------------------------------------|
D|-----------------------------------------------------------|
A|-----------------------------------------------------------|
E|-----------------------------------------------------------|

e|-----------------------------------------------------------|
B|----7---7/9-9----------------------------------------------|
G|----7---7/9-9----------------------------------------------|
D|-----------------------------------------------------------|
A|-----------------------------------------------------------|
E|-----------------------------------------------------------|

e|-----—-9--9------------------------------------------------|
B|----9-10-10\7—7--------------------------------------------|
G|----9--9--9\7—7--------------------------------------------|
D|-----------------------------------------------------------|
A|-----------------------------------------------------------|
E|-----------------------------------------------------------|

e|---------9--9----------------------------------------------|
B|----7/9-10-10\7-7------------------------------------------|
G|----7/9--9—-9\7-7------------------------------------------|
D|-----------------------------------------------------------|
A|-----------------------------------------------------------|
E|-----------------------------------------------------------|

e|---------9-------------------------------------------------|
B|----7/9-10-------------------------------------------------|
G|----7/9--9—------------------------------------------------|
D|-----------------------------------------------------------|
A|-----------------------------------------------------------|
E|-----------------------------------------------------------|


************************************

| /   slide up
| \   slide down
| h   hammer-on
| p   pull-off
| x   Mute note
| b   Bend
| pb  Pre-bend
| br  Bend release
| pbr Pre-bend release
| brb Bend release bend

************************************

            
            
Suggest correction
Creating personal tab
Creating personal tab
You can edit any tab online and save it as your Personal.

You can edit, replace or remove any tab part or add personal notes – all changes will be seen only by you.

Personal tabs can be accessed anytime from any device, even offline.
Learn more »
Give kudos to tab author, rate the tab!
1 2 3 4 5
comments
print report bad tab
guest
You may want to rate the tab now too:
select rating
Wanna post a correction for this tab? Suggest correction