Oops, an error
Loading. Please wait.

Paid In Full bass

7,535 views 42 this week
2 commentsread comments
1 2 3 4 5
x 5
add to favorites
×
Save as Personal and add changes to this tab that will be seen only by you. Learn more ›
×
You can save this tab as Personal to edit and correct it or add notes. All changes will be seen only by you. Learn more »
launch autoscroll
font size
0
reset
guitar tuner
edit
Autoscroll
slow
fast
+/-
esc
set tempo
stop
------------------------
Paid in Full
------------------------
from Eric B. & Rakim album "Paid in Full"
tab by Matt Clark, Matt.Clark@umit.maine.edu



 Bass
|------------------------------------------------------------------------------|
|--------------------------------------------------------1---------------------|
|-----------------------1--1--0--1-----0-1--3--3--3-3------3-1-----------------|
|-1--1--1-1---1--4--1------------------------------------------4-3-1--1--0--1--|

|------------------------------------------------------------------------------|
|------------------------------------------------------------------------------|
|-3-6-3------------------------------------------------------------------------|
|------------------------------------------------------------------------------|
 -These last 3 notes in the riff actually sound one octave lower.


 A similar sounding bass line was used at the end of the Rob Base song "Make it Hot" 



            
            
Suggest correction
Creating personal tab
Creating personal tab
You can edit any tab online and save it as your Personal.

You can edit, replace or remove any tab part or add personal notes – all changes will be seen only by you.

Personal tabs can be accessed anytime from any device, even offline.
Learn more »
comments
print report bad tab
2 comments total.
0 reply
theelk801 10 Jan 17, 2009 01:00 PM

From the looks of it, this song may need to be played on a five string, making the end go like this:

G|------------------------------------
D|------------------------------------
A|------------------------------------
E|------------------------------------
B|-1-4-1------------------------------

Which would make it an octave lower.

0 reply
Ghefly 435 Aug 28, 2010 01:31 PM

this tab is spot on, as you said the last bit is an octave lower. thanks.

guest
Wanna post a correction for this tab? Suggest correction