Oops, an error
Loading. Please wait.

Love Your Love The Most tab

version 3
version 3

Whole song

Interactive

332 views 1 this week
no commentswrite comment
1 2 3 4 5
3 more votes to show rating
add to favorites
×
Save as Personal and add changes to this tab that will be seen only by you. Learn more ›
×
You can save this tab as Personal to edit and correct it or add notes. All changes will be seen only by you. Learn more »
launch autoscroll
font size
0
reset
how to read this tab
guitar tuner
edit
Autoscroll
slow
fast
+/-
esc
set tempo
stop
About this tab version
Full Complete Tab Including Solo. Was this info helpful? Yes No
Love Your Love The Most - Eric Church

Tabbed By: Reilly Donnelly
Email: reillydonnelly@outlook.com

If you have any troubles reading this tab go subscribe to my youtube channel 
https://www.youtube.com/channel/UCZ__GzgeVernEjOfGKvRuGg! I have a video
for this tab to help you learn it! Please feel free to email me any suggestions
or songs you would like!


Capo 3rd

Acoustic Intro/Outro
e|-------------3-----------------------3------------------3------|
B|-------------3-----------------------3------------------3------|
G|-------------0-----------------------0------------------0------|
D|-------------2---------0-------------2---2p0------------0------|
A|-----0h2--3--3-----0h2-------0h2--3--3-------3-2-0------2------|
E|---3-------------3---------3-----------------------2h3--3------|

Electric Intro/Outro
e|------------3--------------3-2---------3-----3-2-----2-3-------|
B|-----1h3p1----3p1----1h3p1-------1h3p1---3p1-----3h1-----------|
G|---0---------------0-----------0-------------------------------|
D|---------------------------------------------------------------|
A|---------------------------------------------------------------|
E|---------------------------------------------------------------|

Electric Chorus
e|---2-2h3--2--2h3--2--2h3--2-0----3p2-3p2--2-2h3--2-0-------3---|
B|-------------------------------3---------------------1-0h1-----|
G|---------------------------------------------------------------|
D|---------------------------------------------------------------|
A|---------------------------------------------------------------|
E|---------------------------------------------------------------|

Electric Solo (Not relative to capo)
e|----------------------------------------------------13-11----11--|
B|------------15p13----13\11\10--11p10----------------------11-----|
G|------------------14-----------------12p10-12p10-----------------|
D|-6/8-8-6-8-------------------------------------------------------|
A|-----------------------------------------------------------------|
E|-4/6-6-4-5-------------------------------------------------------|

e|--10p8h10----8---------------------------------------------------|
B|----------11---10-6----------------------------------------------|
G|-----------------------------------------------------------------|
D|-----------------------------------------------------------------|
A|-----------------------------------------------------------------|
E|-----------------------------------------------------------------|

            
            
Suggest correction
Creating personal tab
Creating personal tab
You can edit any tab online and save it as your Personal.

You can edit, replace or remove any tab part or add personal notes – all changes will be seen only by you.

Personal tabs can be accessed anytime from any device, even offline.
Learn more »
Give kudos to tab author, rate the tab!
1 2 3 4 5
comments
print report bad tab
guest
You may want to rate the tab now too:
select rating
Wanna post a correction for this tab? Suggest correction