Oops, an error
Loading. Please wait.

Blues Leave Me Alone bass

version 1
version 1

Whole song

Interactive

350 views 3 this week
1 commentread comment
1 2 3 4 5
x 3
add to favorites
×
Save as Personal and add changes to this tab that will be seen only by you. Learn more ›
×
You can save this tab as Personal to edit and correct it or add notes. All changes will be seen only by you. Learn more »
launch autoscroll
font size
0
reset
guitar tuner
edit
Autoscroll
slow
fast
+/-
esc
set tempo
stop
Author
Difficulty
Eric Clapton
Blues leave me alone 

Bass Tab

Tuning: EADG
Tempo: 111 bpm
Key signature: E (harmonica)


Intro: 00:01                 Bass: 00:08  
G|-------------------------||-------------------------|-
D|--  Guitar   ------------||----6--7--8--9g---7-6----|-
A|-------- Harmonica   ----||-7g-------------------9g-|-
E|--------------  Drums ---||-------------------------|-


Verse1: 00:15 
G|-------------\6-|----------------||-------------6-|-------------6-|-
D|----6--6/9--9---|-------------\4-||----6-6/9--9/--|----6-6/9--9/--|-
A|-7g-------------|----4--4\7--7---||-7g------------|-7g------------|-
E|----------------|-5g-------------||---------------|---------------|-
Blues, blues trying to drive me away from home.

G|----------------|----------------||-------------6--6/9--9\6--6--------|-
D|-------------\4-|-------------\4-||----6-6/9--9/--------------/9--9\6-|-
A|----4--4\7--7---|----4--4\7--7---||-7g--------------------------------|-
E|-5g-------------|-5g-------------||-----------------------------------|-
Blues, blues trying to drive me away from home.

G|----------------|----------------||----------------------9-6----------|-
D|-------------\6-|-------------\4-||-----6-6/7--7/8--8/9g-----9--6-7-9-|-
A|----6--6/9--9---|----4--4\7--7---||-7g--------------------------------|-
E|-7g-------------|-5g-------------||-----------------------------------|-
Had the blues so bad, blues followed me all day long.


Verse2: 00:54
G|-------------\6-|----------------||-------------6-|-------------6-|-
D|----6--6/9--9---|-------------\4-||----6-6/9--9/--|----6-6/9--9/--|-
A|-7g-------------|----4--4\7--7---||-7g------------|-7g------------|-
E|----------------|-5g-------------||---------------|---------------|-
Blues, blues won't let me take my rest.

G|----------------|----------------||-------------6--6/9--9\6--6--------|-
D|-------------\4-|-------------\4-||----6-6/9--9/--------------/9--9\6-|-
A|----4--4\7--7---|----4--4\7--7---||-7g--------------------------------|-
E|-5g-------------|-5g-------------||-----------------------------------|-
Blues, blues won't let me take my rest.

G|----------------|----------------||----------------------9-6----------|-
D|-------------\6-|-------------\4-||-----6-6/7--7/8--8/9g-----9--6-7-9-|-
A|----6--6/9--9---|----4--4\7--7---||-7g--------------------------------|-
E|-7g-------------|-5g-------------||-----------------------------------|-
My mind is rambling like a wild geese out in the west.


Verse3: 01:33 
G|-------------\6-|----------------||-------------6-|-------------6-|-
D|----6--6/9--9---|-------------\4-||----6-6/9--9/--|----6-6/9--9/--|-
A|-7g-------------|----4--4\7--7---||-7g------------|-7g------------|-
E|----------------|-5g-------------||---------------|---------------|-
Well, you're my all day study, baby you're my midnight dream.

G|----------------|----------------||-------------6--6/9--9\6--6--------|-
D|-------------\4-|-------------\4-||----6-6/9--9/--------------/9--9\6-|-
A|----4--4\7--7---|----4--4\7--7---||-7g--------------------------------|-
E|-5g-------------|-5g-------------||-----------------------------------|-
Yes, you're my all day study, baby you're my midnight dream.

G|----------------|----------------||----------------------9-6----------|-
D|-------------\6-|-------------\4-||-----6-6/7--7/8--8/9g-----9--6-7-9-|-
A|----6--6/9--9---|----4--4\7--7---||-7g--------------------------------|-
E|-7g-------------|-5g-------------||-----------------------------------|-
I love that woman better than anyone I've ever seen.



Instrumental: 02:13 
G|-------------\6-|----------------||-------------6-|-------------6-|-
D|----6--6/9--9---|-------------\4-||----6-6/9--9/--|----6-6/9--9/--|-
A|-7g-------------|----4--4\7--7---||-7g------------|-7g------------|-
E|----------------|-5g-------------||---------------|---------------|-

G|----------------|----------------||-------------6--6/9--9\6--6--------|-
D|-------------\4-|-------------\4-||----6-6/9--9/--------------/9--9\6-|-
A|----4--4\7--7---|----4--4\7--7---||-7g--------------------------------|-
E|-5g-------------|-5g-------------||-----------------------------------|-

G|----------------|----------------||----------------------9-6----------|-
D|-------------\6-|-------------\4-||-----6-6/7--7/8--8/9g-----9--6-7-9-|-
A|----6--6/9--9---|----4--4\7--7---||-7g--------------------------------|-
E|-7g-------------|-5g-------------||-----------------------------------|-


Verse4: 02:52 
G|-------------\6-|----------------||-------------6-|-------------6-|-
D|----6--6/9--9---|-------------\4-||----6-6/9--9/--|----6-6/9--9/--|-
A|-7g-------------|----4--4\7--7---||-7g------------|-7g------------|-
E|----------------|-5g-------------||---------------|---------------|-
Blues, blues follow me all day long.

G|----------------|----------------||-------------6--6/9--9\6--6--------|-
D|-------------\4-|-------------\4-||----6-6/9--9/--------------/9--9\6-|-
A|----4--4\7--7---|----4--4\7--7---||-7g--------------------------------|-
E|-5g-------------|-5g-------------||-----------------------------------|-
Blues, blues follow me all day long.

G|----------------|----------------||-----------------------9--6--------|-
D|-------------\6-|-------------\4-||-----6-6/7--7/8--8/9g--------------|-
A|----6--6/9--9---|----4--4\7--7---||-7g--------------------------7gr~~~|-
E|-7g-------------|-5g-------------||-----------------------------------|-
Blues, blues won't you please leave me alone.


End: 03:37


Tablature Legend ----------------  
| S  slap 
| .  full stop
| P  pop 
| x  mute note 
| /  slide up 
| \  slide down 
| h  hammer-on 
| p  pull-off 
| g  grace note 
| ~  vibrato 
| ^  brush up

            
            
Suggest correction
Creating personal tab
Creating personal tab
You can edit any tab online and save it as your Personal.

You can edit, replace or remove any tab part or add personal notes – all changes will be seen only by you.

Personal tabs can be accessed anytime from any device, even offline.
Learn more »
Give kudos to tab author, rate the tab!
1 2 3 4 5
comments
print report bad tab
1 comment total.
0 reply
sheila scotty 16 Jul 25, 2015 05:44 AM

Quite an easy one for you Bluesman ... but still perfect and accurate... and good to have... Thanks

guest
You may want to rate the tab now too:
select rating
Wanna post a correction for this tab? Suggest correction