Oops, an error
Loading. Please wait.
We have Chord Pro version of Change The World.
It's the closest thing you can get to the original song and it has interactive parts. Check out the tab »
×
29,705 views 180 this week
4 commentsread comments
1 2 3 4 5
x 23
add to favorites
×
Save as Personal and add changes to this tab that will be seen only by you. Learn more ›
×
You can save this tab as Personal to edit and correct it or add notes. All changes will be seen only by you. Learn more »
launch autoscroll
font size
0
reset
transpose
0
reset
simplify chords
display chords
guitar tuner
backing track
0:00
0:00
edit
Autoscroll
slow
fast
+/-
esc
set tempo
stop
Author
Strumming
There is no strumming pattern for this song yet. and get +5 IQ
-------------------------------------------------------------------------------
                             CHANGE THE WORLD - Eric Clapton
-------------------------------------------------------------------------------
Tabbed by: DTorre

Tuning: EADGBe

[Intro]

       E        F#m7     G6          G6    F#m7     E
e|-----0--------2--------0-----|----0------2--2-----0----------------------|
B|-----0--------2--------0-----|----0------2--2-----0----------------------|
G|-----1--------2--------4-----|----4------2--2-----1----------------------|
D|-----2--------2--------5-----|----5------2--2-----2----------------------|
A|-----2--------4--------5-----|----5------4--4-----2----------------------|
E|-0--------0--------0---------|-0------0-----------0----------------------|


       E        F#m7     G6         G6    F#m7     B7sus4
e|-----0--------2--------0-----|----0------2--2-----0----------------------|
B|-----0--------2--------0-----|----0------2--2-----0----------------------|
G|-----1--------2--------4-----|----4------2--2-----2----------------------|
D|-----2--------2--------5-----|----5------2--2-----4----------------------|
A|-----2--------4--------5-----|----5------4--4-----2----------------------|
E|-0--------0--------0---------|-0------0----------------------------------|


[Verse]
E             F#m7      G6    
   If I could reach the stars 
G6             F#m7          E
I'd pull one down for you
E        F#m7  G6
Shine it on my heart
G6     F#m7          E
so you could see the truth
A           Bm          C
  That this love I have inside
C       Bm           A
is everything it seems
E       F#m7   G6
But for now I find
G6        F#m7  G#
it's only in my dreams


[Chorus]
G#         F#m    G#   C#m
That I can change the world 
F#m            G#               C#m
I would be the sunlight in your universe
F#m            G#                 C#m   Cm  Bm
You will think my love was really something good
     A     E*   G#m Gm F#m    B7sus4
Baby if I could cha________nge    the world

E* xxx454

(repeat the intro)

(same chords)
If I could be king even for a day
I'd take you as my queen I'd have it no other way
And our love will rule in this kingdom we have made
Till then I'd be a fool wishin' for the day


[Chorus]
That I can change the world
I would be the sunlight in your universe
You will think my love was really something good
Baby if I could change the world
Baby if I could change the world

- GUITAR SOLO -


[Chorus]
That I can change the world
I would be the sunlight in your universe
You will think my love was really something good
Baby if I could change the world
Baby if I could change the world
Baby if I could change the world

            
            
Suggest correction
Creating personal tab
Creating personal tab
You can edit any tab online and save it as your Personal.

You can edit, replace or remove any tab part or add personal notes – all changes will be seen only by you.

Personal tabs can be accessed anytime from any device, even offline.
Learn more »
comments
print report bad tab
4 comments total. Showing first comments.
+1 reply
edji.anasarias 10 Aug 10, 2013 02:51 AM

this is much more better for me..

-1 reply
shelgunther 10 Aug 07, 2014 02:48 AM

Try watching his video.. the F#m7 is played on only the A and G string.. all others open.. same with an inversion of the G6.. it's a 7th with open strings.. It's easy to slide from the E to F#m to G7 and sounds more correct. Kind of the same thing happening when hitting the A section. Some chords should be 7ths..

0 reply
Kinpa12 398 Nov 02, 2015 10:33 AM

Change The World guitar tab

Change The World - Eric Clapton (From the soundtrack to "Phenomenon")
Transcribed by Stealth

Intro:
^^^^^^
e:---------------|-------------------|
B:-------------0-|-(0)-------0-----0-|
G:---0h1---2-----|-------2-------2---|
D:---------2---0-|-(0)-----0---0-----|
A:-----2---------|-------------------|
E:-0-----0-2-2-3-|-(3)-3-------------|

e:------------------|-----0-----0----0-|
B:----0-------------|-------0------0---|
G:---------2----0h1-|-(1)--------------|
D:----0----2--------|------------------|
A:----------------2-|-(2)--------------|
E:-3----3--2-2------|---------0---0----|

e:------------------|-----|------------------------|-------------------------|
B:----------3-------|-----|------------------------|-------------------------|
G:-(2)/4--2---(2)/4-|-(4)-|-(2)/4--2-0-2-0---------|-------------------------|
D:------------------|-----|------------------2p0---|---------------------0---|
A:------------------|-----|----------------------2-|-----(2)---------0h2-----|
E:------------------|-----|------------------------|-----------------------0-|

During the above 4 bars of the intro a second guitar plays the following:

e:---------------|-----------------|-------------------0-|-----(0)-----------|
B:-------------0-|-(0)-------0-----|---0---------------0-|-----(0)-----------|
G:---0h1---2-----|---------2-------|---------2---------2-|-----(2)-----------|
D:---------2---0-|-(0)---0-----0---|---0-----2----2----4-|-----(4)-----------|
A:-----2---------|-----------------|-------------------2-|-----(2)-----------|
E:-0-----0-2-2-3-|-(3)-3---------3-|-3----3--2------2----|-------------------|

1st Verse:
^^^^^^^^^^
If I can reach the stars...
e:---------------|-----0----------0-----------|
B:---------------|---------0------------0---0-|
G:---1----2----4-|-(4)--------------------4---|
D:---------------|-----------0--------0-------|
A:---2----4----5-|-(5)------------------------|
E:-0----0----0---|----------------------------|

Pull one down for you...
e:-------------------|-----0-----------0-------|
B:-------------------|-----------0-------------|
G:---4----2----(0)h1-|-(1)-------------------1-|
D:-------------------|-------------------------|
A:---5----4--------2-|-(2)---------------------|
E:-0----0----0-------|--------0-----0-----0----|

Shine it on my heart...
e:---------------|-----0----------0--/7-------|
B:---------------|---------0------------0---0-|
G:---1----2----4-|-(4)--------------------4---|
D:---------------|-----------0--------0-------|
A:---2----4----5-|-(5)------------------------|
E:-0----0----0---|----------------------------|

So you could see the truth...
e:(7)----------------|-----0-------------------|
B:-------------------|-----------0---------8p5-|
G:---4----2----(0)h1-|-(1)-----------1---------|
D:-------------------|-----------------------2-|
A:---5----4--------2-|-(2)---------------------|
E:-0----0----0-------|--------0--------0-------|

Then this love I have inside...
e:----------------|-----0-------0---------|---------------|
B:----2----3----5-|-(5)-------------------|---5----3----2-|
G:----------------|---------------------0-|---------------|
D:----2----4----5-|-(5)------5--------5---|---5----4----2-|
A:-0-----0----0---|--------0------0h7-----|-0----0----0---|
E:----------------|-----------------------|---------------|

e:---------------5b�(5)p3b�---|-----------0---|-----0--------0------------0-|
B:-(2)--------2---------------|---------------|--------0------------0-------|
G:----------------------------|---1----2----4-|-(4)--------------------4----|
D:-(2)-----2------------------|---------------|-----------0------0----------|
A:------0-----------------0h2-|---2----4----5-|-(5)-------------------------|
E:----------------------------|-0----0--------|-----------------------------|

e:-------------4-|-4-------------|
B:-------------4-|--------4-5--7-|
G:---4----2----5-|----5-6--------|
D:-------------4-|---------------|
A:---5----4------|---------------|
E:-0----0------4-|---------------|

Chorus:
^^^^^^^
F#m7 G#7 C#m7 D#m7b5 G#7 C#m7
Change........The world I will be the sunlight in your universe

D#m7b5 G#7 C#m7 Cm7
You would think my love was really something

Bm7 A Eadd2/G# E/G# E�/G F#m7(Type 2) E
Good, baby if I could change...................... The world.

2nd guitar beneath the chorus:
(Starts just after the "If I could..." on the A chord)

e:-------------|----------0-|-(0)-|------7/9-----------9-|
B:-------------|----------0-|-(0)-|----------------(9)p7-|
G:------9h11-9-|----------2-|-(2)-|----------------------|
D:-9h11--------|----------2-|-(2)-|----------------------|
A:-------------|------------|-----|----------------------|
E:-------------|----------2-|-(2)-|----------------------|

e:-----------------|------|----------------------|-----------------------|
B:---------3-------|------|----------------------|----------

guest
You may want to rate the tab now too:
select rating
Wanna post a correction for this tab? Suggest correction