Oops, an error
Loading. Please wait.
We have Chord Pro version of Change The World.
It's the closest thing you can get to the original song and it has interactive parts. Check out the tab »
×
10,103 views 21 this week
no commentswrite comment
1 2 3 4 5
x 6
add to favorites
×
Save as Personal and add changes to this tab that will be seen only by you. Learn more ›
×
You can save this tab as Personal to edit and correct it or add notes. All changes will be seen only by you. Learn more »
launch autoscroll
font size
0
reset
how to read this tab
guitar tuner
backing track
0:00
0:00
edit
Autoscroll
slow
fast
+/-
esc
set tempo
stop
Author
Difficulty
Change the world  (live)
Eric clapton
Tabbed by: Mariano Arnaiz
Anything to: marianoarnaiz@hotmial.com

Intro
 E         A       E*/G#    E     A     E*/G#
e------0----------------------------------0h4-0-4-|
B------0----2------5--------------2-----5---------|
G— 0h1------2-2----4--4-----0h1---2-2---4---------|
D--(2)------2---------2-----2-----2---------------|
A---2-------0---------------2-----0---------------|
E-0----------------4--------0-----------4---------|

e------------------------------------------------|
B--------3---------------------------------------|
G-2/4--2---2/4--4--2/4--2-0-2-0------------------|
D--------------------------------2p0---------0---|
A------------------------------------2---0h2-----|
E----------------------------------------------0-|

Verse 1
E        A         E*/G#
If I can reach the stars,
E        A        E*/G#
Pull one down for you,
E        A     E*/G#
Shine it on my heart
E      A             E*/G#
So you could see the truth:
A         D           E
That this love I have inside
E       D        A
Is everything it seems.
E       A         E*/G#
But for now I find
E         A     G#7
It's only in my dreams.

Chorus
      Fm#(F#7) G#(G#7)      Cm#(C#7)
I can cha......nge.... the world,
Fm#(F#7)      G#(G#7)          Cm#(C#7)
I will be the sunlight in your universe.
Fm#(F#7)           G#(G#7)         Cm#      Cm    Bm
You would think my love was really some.....thing good,
A         E (E*/G#) G#m   Gm  Fm#    E
Baby if I could     chan..ge the  world.

Post-chorus riff
e-------------------------------------------------------------|
B-------3-----------------------------------------------------|
G-2/4-2---2/4--4---2/4--2-0-2-0-------------------------------|
D--------------------------------2p0-2--2-----0---------0h2---|
A------------------------------------------0h2---0h1p0--------|
E-----------------------------------------------------------3-|

Verse 2
E        A        E*/G#
And if I could be king,
E    A     E*/G#
Even for a day,
E            A     E*/G#
I'd take you as my queen;
E           A        E*/G#
I'd have it no other way.
A       D          E*/G#
And our love would rule
     E       D      A
This kingdom we had made.
E         A         E*/G#
Till then I'd be a fool,
E       A       G#7
Wishing for the day...

Chorus
      Fm#(F#7) G#(G#7)      Cm#(C#7)
I can cha......nge.... the world,
Fm#(F#7)      G#(G#7)          Cm#(C#7)
I will be the sunlight in your universe.
Fm#(F#7)           G#(G#7)         Cm#      Cm    Bm
You would think my love was really some.....thing good,
A         E (E*/G#) G#m   Gm  Fm#    E
Baby if I could     chan..ge the  world.
A         E (E*/G#) G#m   Gm  Fm#    E
Baby if I could     chan..ge the  world.

Solo
e-------10-10-10-10-10-10-------------------------|
B-10/12-12-12-12-12-12-12--(12)10-8-10-8-(8)h10---|
G-------------------------------------------------|
D-------------------------------------------------|
A-------------------------------------------------|
E-------------------------------------------------|

e--------------------------------------------------------------------------|
B-10b«r(10)p8------------------------------------------8---10bfullr10-8b¬--|
G-------------9---(7)h9p7------------------------7-7-9---9-----------------|
D---------------9---------97p5----------5-(7)/9----------------------------|
A-------------------------------7--(7)-7-----------------------------------|
E--------------------------------------------------------------------------|

e---------------10----12---(10)h12----(10)h12---10--------|
B-------(10)/12------------------------------------12--11-|
G-9-------------------------------------------------------|
D---------------------------------------------------------|
A---------------------------------------------------------|
E---------------------------------------------------------|

e--------------------------------------15b«---12-----12-11---|
B-10-8---10bfull(10)p8--------------12------------/14----13--|
G------9----------------9-9--(9)-----------------------------|
D------------------------------------------------------------|
A------------------------------------------------------------|
E------------------------------------------------------------|

e-(11)-------14---12b¬-------------|
B-(13)-------------------14p12--14-|
G--------13------------------------|
D----------------------------------|
A----------------------------------|
E----------------------------------|

Chorus
      Fm#(F#7) G#(G#7)      Cm#(C#7)
I can cha......nge.... the world,
Fm#(F#7)      G#(G#7)          Cm#(C#7)
I will be the sunlight in your universe.
Fm#(F#7)           G#(G#7)         Cm#      Cm    Bm
You would think my love was really some.....thing good,
A         E (E*/G#) G#m         E
Baby if I could     change the  world.
A         E (E*/G#) G#m         E
Baby if I could     change the  world.
A         E (E*/G#) G#m   Gm  Fm#    E
Baby if I could     chan..ge the  world.
Outro

e---------------------|
B-----------3---------|
G---2/4--2-----2/4--4-|
D---------------------|
A---------------------|
E---------------------|

e---------------------------------------------------------------|
B---------------------------------------------------------------|
G-2/4--42p0-2--0------------------------------------------------|
D------------------2--0h2-0--------------2-0----------------2---|
A-----------------------------2-0h1p0----------2-1-0------------|
E-------------------------------------3-0------------(3)/4-0----|


Chords for the song

  E  A  E*/G#  D  G#7  Fm#  Gm#  Cm#  Cm  Bm  F#7  C#7  G#7
e-0--0---------2--4----2----4----4----3---2---2----4----4---|
B-0--2--5------3--4----2----4----5----4---3---2----5----4---|
G-1--2--4------2--5----2----4----6----5---4---3----4----5---|
D-2--2--2------0--4----2----6----6----5---4---2----6----4---|
A-2--0---------0--6----4----6----4----3---2---4----4----6---|
E-0-----4---------4----2----4-----------------2---------4---|

            
            
Suggest correction
Creating personal tab
Creating personal tab
You can edit any tab online and save it as your Personal.

You can edit, replace or remove any tab part or add personal notes – all changes will be seen only by you.

Personal tabs can be accessed anytime from any device, even offline.
Learn more »
comments
print report bad tab
guest
You may want to rate the tab now too:
select rating
Wanna post a correction for this tab? Suggest correction