Oops, an error
Loading. Please wait.
We have an official Wonderful Tonight tab made by UG professional guitarists. Check out the tab »
×

Wonderful Tonight bass

61,728 views 138 this week
7 commentsread comments
1 2 3 4 5
x 26
add to favorites
×
Save as Personal and add changes to this tab that will be seen only by you. Learn more ›
×
You can save this tab as Personal to edit and correct it or add notes. All changes will be seen only by you. Learn more »
launch autoscroll
font size
0
reset
guitar tuner
backing track
0:00
0:00
edit
Autoscroll
slow
fast
+/-
esc
set tempo
stop
Author
Unregistered
Wonderful Tonight By Eric Clapton(Bass Tab) 
Tabbed By Johan Azmir 


[Intro] 

(Play Twice)

G|------------------------------|
D|5--5-4----------2-0-2/4/7\5---|       (1)
A|----------5-3----3------------|
E|------------------------------|


[Verse]

G|------------------------------|
D|5--5-4----------2-0--2-4------|       (2)
A|----------5-3----3------------|
E|------------------------------|

G|------------------------------|
D|5--5-4----------2-0--0--------|       (3)
A|----------5-3----3-----0-2-3--|
E|------------------------------|

G|------------------------------|
D|2-0--2--4---5-----4-----2-----|       (4)
A|-3----------------------------|
E|------------------------------|

G|------------------------------|
D|0---------2-0---2--4----------|       (5)
A|--0-3------3------------------|
E|------------------------------|

  Play according to this order:

  (1) x 1 time
  (2) x 1 time
  (3) x 1 time
  (4) x 1 time
  (5) x 1 time

  Then play this:

G|------------------------------|
D|5-2-0------------0--4--5--4--2|
A|---------0-2-3--3-------------|
E|------3-----------------------|

G|------------------------------|
D|--0---------0-----------2-0---|
A|----0--3--3-----0-2-3---------|
E|------------------------------|

  Then follow this order:

  (1) x 2 times
  (2) x 1 time
  (3) x 1 time
  (4) x 1 time

  Followed by this:

G|------------------------------|
D|0-------2-0--2-4--5---4---2--0|
A|--0-3--3----------------------|
E|------------------------------|

G|------------------------------|
D|----2-0------2--4--5----------|
A|3-----------------------------|
E|------------------------------|

  Play this once:

  (1) 1 time

  Finish off with this:

G|------------------------------|
D|5---5-4----0h2--0---2/4/7\5---|
A|-------5-3--------------------|
E|------------------------------|



************************************

| h  Hammer-on
| /  Slide up
| \  Slide down    

************************************

            
            
Suggest correction
Creating personal tab
Creating personal tab
You can edit any tab online and save it as your Personal.

You can edit, replace or remove any tab part or add personal notes – all changes will be seen only by you.

Personal tabs can be accessed anytime from any device, even offline.
Learn more »
comments
print report bad tab
7 comments total. Showing first comments.
0 reply
niallfully 10 Apr 26, 2006 11:57 AM

Great Bass Tab. It is a bit hard to figure out though at some parts. U should maybe put the words in above the tab to help figure out the timing better. Great Though :)

+2 reply
str8silver2003 61 Sep 18, 2007 01:04 AM

This was a rather difficult Tab to figure out. I finally got to actually play it once I put some timing to it. I find that people on this site must really hate timing because every tab I have pulled from here I had to time myself and even rearrange some of them because its hard to keep up if you are trying to bounce back and forth accross the page finding notes or trying to figure out where the next section picks up at. My advice USE TIMING and try not to use "play this x2" very seldom is any two sets of measures the same so just tab them out and don't be lazy about it. Write it like you would regular sheet music. Other than that great post. :-)

+2 reply
sadsadtoaster 20 Dec 08, 2008 03:06 PM

The notes are right but the timing is confusing as hell, its not so much that you don't tell us words to correspond as much as the notes aren't spaced well. The things you threw in with the "Then Play This:" type things were the real problem for me, I could figure out the verses.

guest
Wanna post a correction for this tab? Suggest correction