Oops, an error
Loading. Please wait.

Song For George tab

version 2
version 2

Whole song

Interactive

9,355 views 45 this week
1 commentread comment
1 2 3 4 5
x 5
add to favorites
×
Save as Personal and add changes to this tab that will be seen only by you. Learn more ›
×
You can save this tab as Personal to edit and correct it or add notes. All changes will be seen only by you. Learn more »
launch autoscroll
font size
0
reset
how to read this tab
guitar tuner
edit
Autoscroll
slow
fast
+/-
esc
set tempo
stop
Gtr I (D A D G B D) - 'Eric Johnson - acoustic Double Drop D tuning'

Swing Q=94(16=s16)
 4/4
  Gtr I
                                                          |-3-|
   Q      H     +Q.   E   E    a  S  S  +S   E.   E     E S S S E
|-!0--||-(0)----(0)-----|-----------10-(10)-------3b3.5-0-0-------|
|-!3--||-(3)----(3)-----|------8s10-----------------------------1-|
|-!0h=||==2-----(2)-----|-------------------<7>-------------2p0---|
|-!0--||-(0)----(0)-----|---0-------------------0-------0-------2-|
|-!0--||-(0)----(0)-----|-----------------------------------------|
|-!0--||-(0)----(0)-----|-0--------------0--------0-------0-------|
                          S E.           E      E E     E E     E


  E.   S +Q           +Q       E  E
|------0-(0)----------(0)-------------|
|-------------------------------------|
|-2---------------------------<7>-----|
|-0---------------0-------0---<7>---0-|
|---------------0---0--3----------3---|
|----0----3b3.5-------------0-(0)-----|
  E  E    S     S S S  S  S E +E  S S


                                  |-3-|
  E    a  S  S  +S   E.   E     E S S S E
|-----------10-(10)-------3b3.5-0-0-------|
|------8s10-----------------------------1-|
|-------------------<7>-------------2p0---|
|---0-------------------0-------0-------2-|
|-----------------------------------------|
|-0--------------0--------0-------0-------|
  S E.           E      E E     E E     E


  E.   S +Q           +Q       E  E   E S S +S  E.   E     Q.
|------0-(0)----------(0)-----------|-----------0----3b3.5-0--------|
|-----------------------------------|---1---------------------------|
|-2---------------------------<7>---|-----0-(0)------0-----0----0---|
|-0---------------0-------0---<7>-0-|---3----------3----------------|
|---------------0---0--3------------|-------------------------------|
|----0----3b3.5-------------0-(0)---|-3------3----------------5---5-|
  E  E    S     S S S  S  S E +E  E   E E    E     E E     E  S S E


  E S S S S S S +S      E.     +Q
|---------7---3-(3)b3.5-0------(0)----------|
|-------6-----------------------------------|
|---5h7--------------------2p0--0h2---------|
|--------------------------0--------3b3.5-0-|
|-3-----------------------------------------|
|-------------------------------------------|
  E E   Q        E         S S  S S S     S


                                  |-3-|
  E    a  S  S  +S   E.   E     E S S S E   E.   S +Q           +Q       E.  S
|-----------10-(10)-------3b3.5-0-0-------|------0-(0)----------(0)---------12p==|
|------8s10-----------------------------1-|--------------------------------------|
|-------------------<7>-------------2p0---|-2---------------------------<7>------|
|---0-------------------0-------0-------2-|-0---------------0-------0---<7>------|
|-----------------------------------------|---------------0---0--3---------------|
|-0--------------0--------0-------0-------|----0----3b3.5-------------0-(0)------|
  S E.           E      E E     E E     E   E  E    S     S S S  S  S E +Q


   S       S S S S S S S S S S T T S E.
|-10b10.5--------7-7-6-5-----0-------0------|
|---------10---7---7-6-5---0---5s6s5--------|
|---------------------------------------0---|
|-----------------------------------------7-|
|--0----------------------------------------|
|-------------------------------------------|
   H                     Q         E    S S


   S   S      E   S S S S +Q   Q
|-10----------0---7-7-6-5-(5)----------||
|-----------------7-7-6-5-(5)----------||
|--------------------------------------||
|-----10b10.5---7--------------------0-||
|--------------------------------0h3---||
|--------------------------------------||
   E.           S Q        Q   S S S S


                                  |-3-|
  E    a  S  S  +S   E.   E     E S S S E   E.   S +Q           +Q       E  E
|-----------10-(10)-------3b3.5-0-0-------|------0-(0)----------(0)-------------|
|------8s10-----------------------------1-|-------------------------------------|
|-------------------<7>-------------2p0---|-2---------------------------<7>-----|
|---0-------------------0-------0-------2-|-0---------------0-------0---<7>---0-|
|-----------------------------------------|---------------0---0--3----------3---|
|-0--------------0--------0-------0-------|----0----3b3.5-------------0-(0)-----|
  S E.           E      E E     E E     E   E  E    S     S S S  S  S E +E  S S


                                  |-3-|
  E    a  S  S  +S   E.   E     E S S S E
|-----------10-(10)-------3b3.5-0-0--------|
|------8s10-----------------------------1--|
|-------------------<7>-------------2p0----|
|---0-------------------0-------0-------2--|
|------------------------------------------|
|-0--------------0--------0-------0--------|
  S E.           E      E E     E E     E


  E.   S +Q           +Q       E  E   E S S +S  E.   E     Q.
|------0-(0)----------(0)-----------|-----------0----3b3.5-0----------|
|-----------------------------------|---1-----------------------------|
|-2---------------------------<7>---|-----0-(0)------0-----0--(0)-0---|
|-0---------------0-------0---<7>---|---3----------3------------------|
|---------------0---0--3------------|---------------------------------|
|----0----3b3.5-------------0-(0)---|-3------3----------------------5-|
  E  E    S     S S S  S  S E +Q      E E    E     E E     E  +S  S E


  E S S S S S S +S      E.     +Q
|---------7---3-(3)b3.5-0------(0)------------||
|-------6-------------------------------------||
|---5h7--------------------2p0--0--2----------||
|--------------------------0---------3b3.5-0--||
|-3-------------------------------------------||
|---------------------------------------------||
  E E   Q        E         S S  S  S S     S


                                  |-3-|
  E    a  S  S  +S   E.   E     E S S S E
|-----------10-(10)-------3b3.5-0-0-------|
|------8s10-----------------------------1-|
|-------------------<7>-------------2p0---|
|---0-------------------0-------0-------2-|
|-----------------------------------------|
|-0--------------0--------0-------0-------|
  S E.           E      E E     E E     E


  E.   S +Q           +Q       E.  S
|------0-(0)----------(0)---------12p==|
|--------------------------------------|
|-2---------------------------<7>------|
|-0---------------0-------0---<7>------|
|---------------0---0--3---------------|
|----0----3b3.5-------------0-(0)------|
  E  E    S     S S S  S  S E +Q


   S  S S S S S S S S S S T T S E.        S   S      E   S S S S +Q.     E
|-10--------7-7-6-5-----0-------0------|-10----------0---7-7-6-5-(5)----------|
|----10---7-7-7-6-5---0---5s6s5--------|-----------------7-7-6-5-(5)----------|
|----------------------------------0---|-----10b10.5--------------------------|
|------------------------------------7-|---------------7----------------------|
|--0-----------------------------------|--------------------------------------|
|--------------------------------------|-----------------------------------0--|
   H                Q         E    S S    E.           S Q        Q   E.   S


   S   S E    S  S  S  S E  S S  S   S S S
|--7h=10-7---10----10-10-7h10-7-10--10-7---|
|--7h=10-7---10----10-10-7h10-7-10--10-7---|
|------------------------------------------|
|----------0-(0)--------------0-(0)--------|
|------------------------------------------|
|-(0)--------------------0---------------0-|
  +E.      S +Q          E.   S +E.      S


   S  S S S S S S S S S S S  S  S S S
|--5p=3p0-5p3p0-5p3p0---5-7-----0-----|
|---------------------6------6--------|
|---------------------------------5---|
|-----------0---------------(0)-------|
|-------------------------------------|
|-(0)-------------------------------0-|
  +Q        H               +E.     S


   S   S E    S  S  S  S E  S S  S   S S S    S  S S S S S S S S S S S S S S S
|--7h=10-7---10----10-10-7h10-7-10--10-7---|--5p=3p0-5p3p0-5p3p0---5-7---0-----|
|--7h=10-7---10----10-10-7h10-7-10--10-7---|---------------------6-----6-------|
|------------------------------------------|-------------------------------5---|
|----------0-(0)--------------0-(0)--------|-----------0-----------------------|
|------------------------------------------|-----------------------------------|
|-(0)--------------------0---------------0-|-(0)-------------------------------|
  +E.      S +Q          E.   S +E.      S   +Q        H.


  E S S +S  E.   E     Q.
|-----------0----3b3.5-0----------|
|---1-----------------------------|
|-----0-(0)------0-----0--(0)-0---|
|---3----------3------------------|
|---------------------------------|
|-3------3----------------------5-|
  E E    E     E E     E  +S  S E


  E S S S S S S +S      E.     +Q
|---------7---3-(3)b3.5-0------(0)------------||
|-------6-------------------------------------||
|---5h7--------------------2p0--0--2----------||
|--------------------------0---------3b3.5-0--||
|-3-------------------------------------------||
|---------------------------------------------||
  E E   Q        E         S S  S  S S     S


                                  |-3-|
  E    a  S  S  +S   E.   E     E S S S E
|-----------10-(10)-------3b3.5-0-0-------|
|------8s10-----------------------------1-|
|-------------------<7>-------------2p0---|
|---0-------------------0-------0-------2-|
|-----------------------------------------|
|-0--------------0--------0-------0-------|
  S E.           E      E E     E E     E


  E.   S +Q           +Q       E.  S
|------0-(0)----------(0)---------12p==|
|--------------------------------------|
|-2---------------------------<7>------|
|-0---------------0-------0---<7>------|
|---------------0---0--3---------------|
|----0----3b3.5-------------0-(0)------|
  E  E    S     S S S  S  S E +Q


   S       S S S S S S S S S S T T S E.        S   S      E   S S S S +Q.   E
|-10b10.5--------7-7-6-5-----0-------0------|-10----------0---7-7-6-5-(5)-----|
|---------10---7-7-7-6-5---0---5s6s5--------|-----------------7-7-6-5-(5)-----|
|---------------------------------------0---|-----10b10.5---------------------|
|-----------------------------------------7-|---------------7-----------------|
|--0----------------------------------------|---------------------------------|
|-------------------------------------------|---------------------------------|
   H                     Q         E    S S    E.           S Q        H


  E E +E.     S +S  S E   Q         E E Q       S E.   Q
|---0-(0)-----0-(0)---------------|----------------------------|
|---------------------------------|---3---------1-3----3-------|
|-------------------2p0-----------|---2---------0-0----2-------|
|---0-----0---0--3------0h3p0---0-|---0---0---3--------0-----0-|
|------3----------------------3---|-----3------------3---0h3---|
|-0---------0---------------------|-0-------0------------------|
  E E  S  S S S  E.     S S S S S   E E S S S S E    E S S S S


  E E +E.     S +S  S E   Q         E E   +Q        S E.   Q
|-------------0-(0)---------------|---0---(0)------------------|
|---3-(3)-------------------------|-----------------1-3----3---|
|---2-(2)-----------2p0-----------|-----------------0-0----2---|
|---0-----0---0--3------0h3p0---0-|---0-------0---3--------0---|
|------3----------------------3---|--------3-------------3-----|
|-0---------0---------------------|-0---0-------0--------------|
  E E  S  S S S  E.     S S S S S   E S S  S  S S S E    E Q


  E S S +S  E.   E     Q.         E S S S S S S +S      E.     +Q
|-----------0----3b3.5-0--------|---------7---3-(3)b3.5-0------(0)------------|
|---1---------------------------|-------6-------------------------------------|
|-----0-(0)------0-----0----0---|---5h7--------------------2p0--0--2----------|
|---3----------3----------------|--------------------------0---------3b3.5-0--|
|-------------------------------|-3-------------------------------------------|
|-3------3----------------5---5-|---------------------------------------------|
  E E    E     E E     E  S S E   E E   Q        E         S S  S  S S     S


                                  |-3-|
  E    a  S  S  +S   E.   E     E S S S E
|-----------10-(10)-------3b3.5-0-0-------|
|------8s10-----------------------------1-|
|-------------------<7>-------------2p0---|
|---0-------------------0-------0-------2-|
|-----------------------------------------|
|-0--------------0--------0-------0-------|
  S E.           E      E E     E E     E


  E.   S +Q           +Q       S E.   +W
|------0-(0)----------(0)-----------|--------*|
|-----------------------------^3----|-(3)----*|
|-2----------------------------0h2--|-(2)----*|
|-0---------------0-------0---^0----|-(0)----*|
|---------------0---0--3------^0----|-(0)----*|
|----0----3b3.5-------------0-^0----|-(0)----*|
  E  E    S     S S S  S  S E  Q      +W

            
            
Suggest correction
Creating personal tab
Creating personal tab
You can edit any tab online and save it as your Personal.

You can edit, replace or remove any tab part or add personal notes – all changes will be seen only by you.

Personal tabs can be accessed anytime from any device, even offline.
Learn more »
comments
print report bad tab
1 comment total.
0 reply
TheGodofGuitars 95 Apr 22, 2017 11:04 AM

I love it and it's so hard to play ugh :(

guest
You may want to rate the tab now too:
select rating
Wanna post a correction for this tab? Suggest correction