Oops, an error
Loading. Please wait.

Pjanoo tab

version 2
version 2

Whole song

Interactive

6,314 views 1 this week
5 commentsread comments
1 2 3 4 5
x 8
add to favorites
×
Save as Personal and add changes to this tab that will be seen only by you. Learn more ›
×
You can save this tab as Personal to edit and correct it or add notes. All changes will be seen only by you. Learn more »
launch autoscroll
font size
0
reset
how to read this tab
guitar tuner
edit
Autoscroll
slow
fast
+/-
esc
set tempo
stop
Author
Unregistered
-------------------------------------------------------------------------------
                             Pjanoo - Eric Prydz
-------------------------------------------------------------------------------
Tabbed by: Ludvig Tarland
Email: ludvigtarland@hotmail.com

Tuning: E - A - D - F# - B - e


Here is my own pjanoo-tab, with both lead and bass on the same time.

e|-------------------------------------------------------------|
B|----3--3---2--2---0--0--0------3--3---2--2---0--0--0---------|
F#|---5--5---3--3---0--0--0------5--5---3--3---0--0--0---------|
D|-------------------------------------------------------------|
A|----2--2---0--0-----------------------0--0-------------------|
E|------------------3--3--3------3--3----------0--0--0---------|

e|-------------------------------------------------------------|
B|----3--3---2--2---0--0--0------3--3---2--2---0--0--0---------|
F#|---5--5---3--3---0--0--0------5--5---3--3---0--0--0---------|
D|-------------------------------------------------------------|
A|--------------------------------------0--0---2--2--2---------|
E|----0--0---2--2---3--3--3------3--3--------------------------|

play this over & over again!

Peace!


===============================================================================

            
            
Suggest correction
Creating personal tab
Creating personal tab
You can edit any tab online and save it as your Personal.

You can edit, replace or remove any tab part or add personal notes – all changes will be seen only by you.

Personal tabs can be accessed anytime from any device, even offline.
Learn more »
comments
print report bad tab
5 comments total. Showing first comments.
+1 reply
guitarwarrior07 168 Jun 02, 2009 06:23 AM

imo it sounds to low, but still nice, 4 stars

0 reply
Nabong 10 Nov 08, 2009 09:28 PM

doesn't match.

+1 reply
Nabong 10 Nov 09, 2009 05:35 PM

nevermind...it does. I forgot to tune it the way you said to. Good job! i caught your vid on youtube btw

guest
Wanna post a correction for this tab? Suggest correction