Oops, an error
Loading. Please wait.

Kung Akin Ang Mundo tab

version 5
version 5

Interactive

275 views 9 this week
no commentswrite comment
1 2 3 4 5
3 more votes to show rating
add to favorites
×
Save as Personal and add changes to this tab that will be seen only by you. Learn more ›
×
You can save this tab as Personal to edit and correct it or add notes. All changes will be seen only by you. Learn more »
launch autoscroll
font size
0
reset
how to read this tab
guitar tuner
edit
Autoscroll
slow
fast
+/-
esc
set tempo
stop
Author
Difficulty
Kung Akin Ang Mundo by Erik Santos

Tabs written and arranged by Edwin-E (in YouTube)
Blog: http://guitarplucking.blogspot.com
Facebook Page: http://facebook.com/EdwinEGuitar

Video Tutorial:  http://www.youtube.com/watch?v=bv0kV8vZea0


Intro:

E|--4-----5-----4--5-----4--5-----7--|
B|--5--5-----5--5-----5--------5-----|
G|-----------------------------------|
D|--0--------------------------------|
A|-----------------------4-----------|
E|-----------------------------------|

E|--4-----5-----4--5-----4--5-----7--|
B|--5--5-----5--5-----5--------5-----|
G|-----------------------------------|
D|--0-----------0--------------------|
A|-----------------------4-----------|
E|-----------------------------------|

E|--3--2--0----------------------0--|
B|-----------3/5--0-----------0-----|
G|----------------1--------1--------|
D|----------------------2-----------|
A|--3----------------2--------------|
E|----------------0-----------------|


Verse 1:

E|--------0--------0-----------------------|
B|--------------------5--3--3--2--3--------|
G|-----------2--2--------------------2-----|
D|-----2--------------------------------4--|
A|--0-----------------2--------------------|
E|-----------------------------------------|
A9                 Bm7
  Kung ako ang may-ari ng mundo,


E|--------0--0-----------0-----------------------|
B|--------------------------5--3--3--2--3--------|
G|--------------2--2--2--------------------2-----|
D|-----2--------------------------------------4--|
A|--0-----------------------2--------------------|
E|-----------------------------------------------|
A9           Bm7 
  Ibibigay lahat ng gusto mo,


E|-----2--2--4--4/5--5--5--7--4--------------|
B|-----2-------------------------5--5-----5--|
G|-----2-------------------------------6-----|
D|--0----------------------------------------|
A|----------------------------4--------------|
E|-------------------------------------------|
DM7                C#m7
   Araw-araw pasisikatin ang araw,

E|--2--2--2--4--4/5--5--5--7--9---9--9------9---|
B|--2-------------------------9---------12--10--|
G|--2-------------------------9-------------11--|
D|--0-------------------------11------------11--|
A|----------------------------------------------|
E|----------------------------------------------|
DM7                  C#m7           F#m
   Buwan-buwan pabibilugin ko ang buwan


E|--10--9------5--------5--2--4--5--7--------7--|
B|---------12-----3-----3-----------5--5-----5--|
G|-------------------2--2-----------------4--4--|
D|----------------------------------------------|
A|-------------2--------------------------------|
E|----------------------------------0-----------|
        Bm7          E 
Para sa'yo, para sa'yo


CHORUS:


E|----------------------------------------------|
B|----------0--2--2--2--2--2-----5--5--5--7-----|
G|----2--2-----2-----------2--2--4-----------6--|
D|-------------0-----------0-----6--------------|
A|-------------------------------4--------------|
E|----------------------------------------------|
        DM7                  C#m7
Susungkitin mga bituin, para lang makahiling,


E|-----------------------|
B|-----5--3--3--2--------|
G|--6--------------2--2--|
D|-----------------------|
A|--------2--------------|
E|-----------------------|
     Bm7
Na sana'y maging akin, 


E|--------------------------|
B|--------3--2--0-----0--0--|
G|-----------------2-----2--|
D|--4--2-----------------2--|
A|-----------------------0--|
E|--------0-----------------|
      E            A9
Puso mo at damdamin,


E|--------------------------|
B|-----2--2--2-----2--2--2--|
G|--2--2--------2-----------|
D|-----0--------------------|
A|--------------------------|
E|--------------------------|
      DM7
Kung pwede lang, kung kaya lang,


E|--------------------------|
B|-----5--5--5--7--2--------|
G|--2--4--------------------|
D|-----6-----------------4--|
A|-----4--------------4-----|
E|-----------------2--------|
     C#m7        F#m
Kung akin ang mundo,


E|-----------------------------------------------|
B|--2--------------------------------3--2--0-----|
G|-----2--2--------2--2-----------------------1--|
D|-----------4--4--------4--2--2--2--------------|
A|--2-----------------------2--------------------|
E|--------------------------0--------------------|
Bm7                E                     
Ang lahat ng ito'y   iaalay ko sa'yo...


Interlude:
E|--4-----5-----4--5-----4--5-----7--|
B|--5--5-----5--5-----5--------5-----|
G|-----------------------------------|
D|--0-----------0--------------------|
A|-----------------------4-----------|
E|-----------------------------------|

E|--3--2--0----------------------0--|
B|-----------3/5--0-----------0-----|
G|----------------1--------1--------|
D|----------------------2-----------|
A|--3----------------2--------------|
E|----------------0-----------------|


Verse 2  (follow same TABs as Verse 1)


A9             Bm7
  Kung ako ang hari ng puso
A9                   Bm7
  Lagi kitang pababantay kay kupido,
DM7                    C#m7 
  Hindi na luluha ang 'yong mga mata,
DM7                   C#m7          F#m
  mananatiling may ngiti sa 'yong labi,
       Bm7          E      
para sa'yo, para sa'yo,    

(Repeat Chorus except last line)


Bm7                E              A9  -  F        
Ang lahat ng ito'y   iaalay ko sa'yo...  Oh 


Chorus 2:

E|-----------------------------------------------|
B|--------------------------------6--6--6--8-----|
G|--------5--7--7--7--7--7--------5-----------7--|
D|--8--8-----8--------------8--8--7--------------|
A|-----------6--------------------5--------------|
E|-----------------------------------------------|
       EbM7                   Dm7
Susungkitin mga bituin, para lang makahiling,


E|-----------------------|
B|-----7--4--3-----------|
G|--8-----------3-----3--|
D|-----------------5-----|
A|--------3--------------|
E|-----------------------|
     Cm7
Na sana'y maging akin, 


E|--------------------------|
B|--------4--3--1-----1--1--|
G|-----------------3-----3--|
D|--5--3-----------------3--|
A|-----------------------1--|
E|--------1-----------------|
      F           Bb9
Puso mo at damdamin,


E|--------------------------|
B|--------------------------|
G|--3--7--7--7-----7--7--7--|
D|-----8--------8--8--------|
A|-----6-----------6--------|
E|--------------------------|
       EbM7
Kung pwede lang, kung kaya lang,


E|--------------------------|
B|-----6--6--6--8--3--------|
G|-----5--------------------|
D|--8--7-----------------5--|
A|-----5--------------5-----|
E|-----------------3--------|
      Dm7        Gm
Kung akin ang mundo,


E|--------------------|
B|--3-----------------|
G|-----3--3--------3--|
D|-----------5--5-----|
A|--3-----------------|
E|--------------------|
       Cm7         
Ang lahat ng ito'y 


E|--------------------|
B|--6--6--6--6--8--3--|
G|--5-----------------|
D|--7--------------5--|
A|--5--------------5--|
E|----------------3---|
Dm7           Gm       
Ang lahat ng ito'y


E|----------------------------------------------|
B|--3-------------------------------4--3--1-----|
G|----3--3--------3--3-----------------------2--|
D|----------5--5--------5--3--3--3--------------|
A|--3----------------------3--------------------|
E|-------------------------1--------------------|
Cm7                F                    
Ang lahat ng ito'y  iaalay ko sa'yo...


Outro:


E|--5-----6-----5--6-----5--6-----8--4--3--1----------------------1--|
B|--6--6-----6--------6--------6--------------4/6--1-----------1-----|
G|-------------------------------------------------2--------2--------|
D|-------------------------------------------------------3-----------|
A|--6--------------------5-----------4----------------3--------------|
E|-------------------------------------------------1-----------------|

            
            
Suggest correction
Creating personal tab
Creating personal tab
You can edit any tab online and save it as your Personal.

You can edit, replace or remove any tab part or add personal notes – all changes will be seen only by you.

Personal tabs can be accessed anytime from any device, even offline.
Learn more »
Give kudos to tab author, rate the tab!
1 2 3 4 5
comments
print report bad tab
guest
You may want to rate the tab now too:
select rating
Wanna post a correction for this tab? Suggest correction