Oops, an error
Loading. Please wait.

Penitentiary Philosophy bass

646 views 12 this week
no commentswrite comment
1 2 3 4 5
3 more votes to show rating
add to favorites
×
Save as Personal and add changes to this tab that will be seen only by you. Learn more ›
×
You can save this tab as Personal to edit and correct it or add notes. All changes will be seen only by you. Learn more »
launch autoscroll
font size
0
reset
guitar tuner
edit
Autoscroll
slow
fast
+/-
esc
set tempo
stop
Author
                             Penitentiary Philosophy
                                   Erykah Badu

Bass                                                            Erykah Badu
                                                               James Poyser
                                                             Ahmir Thompson
                                                             Pino Palladino

As played by Pino Palladino

Tuning: C# F# B E

In 2/2

Intro

|-----------------|
|---------0---2---|
|-----2-----------|
|-----------------|
  Q   Q   Q   Q

|-2---------0-----|---------2-------|-----------------|-----------------|
|-------------2---|-------2---------|-----------------|---------2-------|
|---------------3-|-0---3-----0-3---|(3)--------------|-2---5-----------|
|-----------------|-----------------|-----------------|-------------3---|
  H       E E E E   Q   E E E E Q     H.          Q     Q   Q   Q   Q

|-----------------|-----4---2-0-----|-----------------|-----------------|
|-----------------|-------------2-0-|-2-5-2-----------|-----------------|
|-----------------|-----------------|-----------------|-----------------|
|(3)--------------|-----------------|-----------------|-3---5-----------|
  W                 Q   Q   E E E E   E E Q   H         Q   Q   H

Verse 1

|-----------------|-----------------|-----------------|-----------------|
|-2-0-2---------2-|-0-2-----2---0---|-2-------------2-|-0---2-----------|
|-------------2---|-----------------|-------------2---|-----------------|
|-------0---0-----|-----0-----------|-------0---0-----|---------x---x-x-|
  E E E Q   E E E   E E Q   Q   Q     Q   E Q   E E E   Q   Q   Q   E E

|-----------------|---------7---6---|-----------------|-----------------|
|-2-0-2---------2-|-0-2-------------|---------------2-|-0---2-----------|
|-------------2---|-----------------|-------------2---|-----------------|
|-------0---0-----|-----0-----------|-0-----0---0-----|---------x---x-x-|
  E E E Q   E E E   E E Q   Q   Q     Q   E Q   E E E   Q   Q   Q   E E

|-----------------|-----------------|-----------------|-------------6---|
|-2-0-2---------2-|-0-2-----2---0---|---------------2-|-0---2-----------|
|-------------2---|-----------------|-------------2---|-----------------|
|-------0---0-----|-----0-----------|-0-----0---0-----|---------x-------|
  E E E Q   E E E   E E Q   Q   Q     Q   E Q   E E E   Q   Q   Q   Q

|-7-6-7-----------|-----------------|-----------------|-----------------|
|---------------2-|-0-2-----2---0---|-2-------------2-|-0---2-----------|
|-------------2---|-----------------|-------------2---|-----------------|
|-0-----0---0-----|-----0-----------|-------0---0-----|---------x---x-x-|
  E E E Q   E E E   E E Q   Q   Q     Q   E Q   E E E   Q   Q   Q   E E

Pre-Chorus 1

|-------11--------|-0-7-9-----6-9---|-------11--------|-0-7-9-------7---|
|-----9-----------|---------7-------|-----9-----------|-----------5-----|
|---7-------------|-----------------|---7-------------|---------3-------|
|-0-----------0-0-|-----------------|-0-----------0-0-|-----------------|
  E E E Q.    E E   E E Q   E E Q     E E E Q.    E E   E E Q   E E Q   

|-------11--------|-0-7-9-----6-9---|-------11--------|-----------------|
|-----9-----9-----|---------7-------|-----9-----------|---------0---2---|
|---7---------7-7-|-----------------|---7---------0-0-|-----2-----------|
|-0---------------|-----------------|-0---------------|-----------------|
  E E E Q   E E E   E E Q   E E Q     E E E Q.    E E   Q   Q   Q   Q   

Chorus 1

|-------------2---|-2---2-----------|-----------------|-----------------|
|-----------------|---------5-2-----|-----------------|---------2-------|
|-0---------------|-------------3---|(3)------3-------|-2---5-----------|
|-----------------|-----------------|-----------0-----|-------------3---|
  H.          Q     Q   Q   E E Q     H       E Q.      Q   Q   Q   Q

|-----------------|-----4---2-0-----|-----------------|-----------------|
|---------5-------|-------------2-0-|-2-5-2-----------|---------0---2---|
|-------5---------|-----------------|-----------------|-----2-----------|
|(3)--------------|-----------------|-----------------|-----------------|
  Q.    E H         Q   Q   E E E E   E E Q   H         Q   Q   Q   Q   

|-------------2---|-4-8-6-----------|-----------------|-----------------|
|-----------------|-----------5-----|-----------------|---------2-------|
|-0---------------|-------------3---|(3)------3-------|-2---5-----------|
|-----------------|-----------------|-----------0-----|-------------3---|
  H.          Q     E E Q.    E Q     H       E Q.      Q   Q   Q   Q

|-----------------|-----4---2-0-----|-----------------|-----------------|
|---------5-------|-------------2-0-|-2-5-2-----------|-0---2-----------|
|-------5---------|-----------------|-----------------|-----------------|
|(3)--------------|-----------------|-----------------|-----------------|
  Q.    E H         Q   Q   E E E E   E E Q   H         Q   Q   Q   Q   

Verse 2

|-----------------|-----------------|-----------------|-------------6---|
|---------------2-|-0-2-----2---0---|-2-------------2-|-0---2-----------|
|-------------2---|-----------------|-------------2---|-----------------|
|-0-----0---0-----|-----0-----------|-------0---0-----|---------x-------|
  Q   E Q   E E E   E E Q   Q   Q     Q   E Q   E E E   Q   Q   Q   Q  

|-7-6-7-----------|-----------------|-----------------|-----------------|
|---------------2-|-0-2-----2---0---|-2-------------2-|-0-2-------------|
|-------------2---|-----------------|-------------2---|-----2-----------|
|-0-----0---0-----|-----0-----------|-------0---0-----|---------x---x-x-|
  E E E Q   E E E   E E Q   Q   Q     Q   E Q   E E E   E E Q   Q   E E

|-----------------|-----------------|-----------------|-----------------|
|-2-0-2---------2-|-0-2-----2---0---|-2-------------2-|-0---2-----------|
|-------------2---|-----------------|-------------2---|-----------------|
|-------0---0-----|-----0-----------|-------0---0-----|---------x---x-x-|
  E E E Q   E E E   E E Q   Q   Q     Q   E Q   E E E   Q   Q   Q   E E

|-7-6-7-----------|-----------------|-----------------|-----------------|
|---------------2-|-0-2-----2---0---|-2-------------2-|-0---2-----------|
|-------------2---|-----------------|-------------2---|-----------------|
|-0-----0---0-----|-----0-----------|-------0---0-----|---------x---x-x-|
  E E E Q   E E E   E E Q   Q   Q     Q   E Q   E E E   Q   Q   Q   E E

Pre-Chorus 2

|-------11--------|-0-7-9-----6-9---|-------11--------|-------------7---|
|-----9-----------|---------7-------|-----9-----------|-----------5-----|
|---7-------------|-----------------|---7-------------|-3-------3-------|
|-0-----------0-0-|-----------------|-0-----------0-0-|-----------------|
  E E E Q.    E E   E E Q   E E Q     E E E Q.    E E   H       E E Q   

|-------11--------|-0-7-9-----6-9---|-------11--------|-----------------|
|-----9-----9-----|---------7-------|-----9-----------|-2-------0---2---|
|---7---------7-7-|-----------------|---7---------0-0-|-----2-----------|
|-0---------------|-----------------|-0---------------|-----------------|
  E E E Q   E E E   E E Q   E E Q     E E E Q.    E E   Q   Q   Q   Q   

Chorus 2

|---------2-------|-2---------------|-----------------|-----------------|
|-----------------|-----5-2---------|-----------------|---------2-------|
|-0---------------|---------3-0-3---|(3)------3-------|-2---5-----------|
|-----------------|-----------------|-----------0-----|-------------3---|
  H       H         Q   Q   E E Q     H       E Q.      Q   Q   Q   Q

|-----------------|-----4---2-0-----|-----------------|-----------------|
|---------5-------|-------------2-0-|-2-5-2-----------|---------0---2---|
|-------5---5-----|-----------------|-----------------|-----2-----------|
|(3)----------3---|-----------------|-----------------|-----------------|
  Q.    E E E Q     Q   Q   E E E E   E E Q   H         Q   Q   Q   Q   

|-----------------|-----------------|-----------------|-----------------|
|-----------------|-----------------|-----------------|---------2-------|
|-0---------------|-------------3---|(3)------0-3-0-3-|-2---5-----------|
|---------3-------|-2---0-----------|-----------------|-------------3---|
  H       H         Q   H       Q     H       E E E E   Q   Q   Q   Q

|-----------------|-----4---2-0-----|-----------------|-----------------|
|-----------------|-------------2-0-|-2-5-2-----------|-----------------|
|-----------------|-----------------|-----------------|-----------------|
|(3)--------------|-----------------|-----------------|-3---5-----------|
  W                 Q   Q   E E E E   E E Q   H         Q   Q   Q   Q   

Bridge 

|-----------------|-----------------|-----------------|-7---------------|
|-----------------|---------------3-|-5-------------5-|---5-5-----------|
|-1---------------|(1)----------1---|-----------------|-------------8---|
|-----------------|-----------------|-----------------|-----------------|
  W                 H.          E E   H.          E E   E E H       Q

|--------------10-|-----------------|-----------------|-----------------|
|-8---------------|-------8---------|-5---------------|---------5-------|
|-----------------|-8-----------8---|---------------5-|-5-5-8-5---------|
|-----------------|-----------------|-----------------|-----------------|
  H.          E E   Q.    Q.    Q     H.          E E   E E E E H

|-----------------|-----------------|-----------------|---8-8-----------|
|-8---------------|-8-------------8-|-6---------------|-----------6-----|
|-----------------|-----------------|-----------------|-----------------|
|-----------------|-----------------|-----------------|-----------------|
  W                 Q   Q   Q.    E   W                 E E Q.    Q.

|-------12--------|---------12------|-----------------|-----------------|
|-----------------|-----------------|-----------------|-5---------------|
|-10--------------|-10---10---10-10-|-6-------8-------|-----------------|
|-----------------|-----------------|-----------------|-----------------|
  Q.    E H         Q.   Q   E E E    H       H         W

|---------------7-|-----------------|-----------------|-----------------|
|-----------------|---8---8----10---|-8---------------|-8-----5---8-----|
|-----------------|-6---6---8-------|-----------------|-----6---8-----6-|
|-----------------|-----------------|-----------------|-------------6---|
  H.          E E   E E E E Q   Q     W                 Q   E E E E E E

|-----------------|-----------------|-----------------|-----------------|
|---------------5-|(5)--------------|(5)--------------|(5)--------------|
|(6)----8---------|-----------------|-----------------|-----------------|
|-----------------|-----------------|-----------------|-----------------|
  Q.    H       E   W                 W                 W                

|-----------------|
|-----------------|
|---------5\------|
|-----------------|
  H       H

Verse 3

|-----------------|-----------------|-----------------|-----------------|
|-2-0-2---------2-|-0-2-----2---0---|-2-------------2-|-0---2-------2---|
|-------------2---|-----------------|-------------2---|-----------------|
|-------0---0-----|-----0-----------|-------0---0-----|---------x-------|
  E E E Q   E E E   E E Q   Q   Q     Q   E Q   E E E   Q   Q   Q   E E

|-----------------|-----------------|-----------------|-------------6---|
|-2-0-2---------2-|-0-2-----2---0---|-2-------------2-|-0---2-----------|
|-------------2---|-----------------|-------------2---|-----------------|
|-------0---0-----|-----0-----------|-------0---0-----|---------x-x-----|
  E E E Q   E E E   E E Q   Q   Q     Q   E Q   E E E   Q   Q   E E Q

|-7---------------|<7>--------------|-----------------|---------------9-|
|---------------2-|---------2---0---|-2-------------2-|-0---2-----------|
|-------------2---|-----------------|-------------2---|-----------------|
|-------0---0-----|-----0-----------|-------0---0-----|---------x-------|
  Q   E Q   E E E   Q   Q   Q   Q     Q   E Q   E E E   Q   Q   Q   E E

|(9)--------------|-----------------|-----------------|-----------------|
|---------------2-|-0-2-----2---0---|-2-------------2-|-2-------0---2---|
|-------------2---|-----------------|-------------2---|-----2-----------|
|-0-----0---0-----|-----0-----------|-------0---0-----|-----------------|
  Q.    Q   E E E   E E Q   Q   Q     Q   E Q   E E E   Q   Q   Q   Q

Chorus 3

|-----------------|-----------------|-----------------|-----------------|
|-----------------|-----------------|-----------------|---------2-------|
|-0-----------0---|-0---0---0---3---|(3)--3-2---0-0---|-2---5-----------|
|-----------------|-----------3-----|---------------3-|-------------3---|
  H.          E E   Q   Q   E E Q     Q   E Q   E E E   Q   Q   Q   Q

|-----------------|-----4---2-0-----|-----------------|-----------------|
|-----------5-5-5-|-------------2-0-|-2-5-2-----------|---------0---2---|
|---------3-------|-----------------|-----------------|-----2-----------|
|(3)--------------|-----------------|-----------------|-----------------|
  H       E E E E   Q   Q   E E E E   E E Q   H         Q   Q   Q   Q   
                                                                     ___
                                                                    | 3 |
|-----------------|-----------------|-----------------|-------------------|
|-----------------|-----------------|-----------------|---------2---5-2---|
|-0-------0-------|-0---0-------3---|(3)------3-------|-2---5-----------5-|
|-----------------|---------3-------|-----------------|-------------------|
  H       H     -   Q   Q   Q   Q     H       Q   Q     Q   Q   Q   E E E

|-----------------|-----4---2-0-----|-----------------|-----------------|
|-----------------|-------------2-0-|-2-5-2-----------|-2-------0---2---|
|-----------------|-----------------|-----------------|-----2-----------|
|(3)--------------|-----------------|-----------------|-----------------|
  W                 Q   Q   E E E E   E E Q   H         Q   Q   Q   Q   

|-----------------|---9-------------|-----------------|-----------------|
|-----------------|-7---7---5-2-----|-----------------|---------2-------|
|-0---------------|-------------3---|(3)--------------|-2---5-----------|
|-----------------|-----------------|-----------------|-------------3---|
  W                 E E Q   E E Q     W                 Q   Q   Q   Q

|-----------------|-----4---2-0-----|-----------------|-----------------|
|-------------2---|-5-2---------2-0-|-2-5-2-----------|-2-------0---2---|
|---------2-5---5-|-----------------|-----------------|-----2-----------|
|-3---5-----------|-----------------|-----------------|-----------------|
  Q   Q   E E E E   E E Q   E E E E   E E Q   H         Q   Q   Q   Q   

|-----------------|---7-5---9-------|-----------------|-----------------|
|---------------5-|-7---------------|-----------------|---------2-------|
|-0-----------7---|-----------0-3---|(3)--------------|-2---5-----------|
|-----------------|-----------------|-----------------|-------------3---|
  H.          E E   E E Q   E E Q     W                 Q   Q   Q   Q

|-----------------|-----4---2-0-----|-----------------|-----------------|
|-----------------|-------------2-0-|-2-5-2-----------|---------0---2---|
|-----------------|-----------------|-----------------|-----2-----------|
|-2---3---3-------|-----------------|-----------------|-----------------|
  Q   Q   Q   Q     Q   Q   E E E E   E E Q   H         Q   Q   Q   Q   
                                           ___
                                          | 3 |
|-----------------|-----------------|-----------------|-----------------|
|-----------------|-----------------|-----------------|---------2-------|
|-0-----0-2-2---3-|-3-3---3-5---3---|(3)--3-----3-----|-2---5-----------|
|-----------------|-----------3-----|-------5-3-------|-------------3---|
  Q.    E E Q   E   E Q   E E E Q     Q   E E E H       Q   Q   Q   Q

|-----------------|-----4---2-0-----|-----------------|-----------------|
|---------5-------|-------------2-0-|-2-5-2-----------|---------0---2---|
|-------5-------5-|-7---------------|-----------------|-----2-----------|
|(3)--------------|-----------------|-----------------|-----------------|
  Q.    E Q.    E   E E Q   E E E E   E E Q   H         Q   Q   Q   Q   

|-----------------|-----------------|-----------------|-----------------|
|-----------------|-----------------|-----------------|---------2-------|
|-0---------------|-0---0---0---3---|(3)--3---3---3---|-2---5-----------|
|-----4---3---4---|-----------------|---------------5-|-------------3---|
  Q   Q   Q   Q     Q   Q   Q   Q     Q   Q   Q   E E   Q   Q   Q   Q

|-----------------|-----4---2-0-----|-----------------|-----------------|
|-------------5---|-------------2-0-|-2-5-2-----------|-----------------|
|---------------5-|-----------------|-----------------|-----------------|
|(3)--------------|-----------------|-----------------|-3---5-----------|
  H.          E E   Q   Q   E E E E   E E Q   H         Q   Q   H

Outro

|-----------------|-----------------|-------11--------|-------------7---|
|-----------------|-----------------|-----------------|-----------5-----|
|-----------------|-----------------|---7-------------|---------3-------|
|-----------------|-----------------|-0---7-----------|-----------------|
  W                 W                 Q E E E H         H       E E Q

|-------11--------|-0-7-9-----6-9---|-------11--------|-------------7---|
|-----------------|---------7-------|-----------------|-----------5-----|
|---7---------7-5-|-----------------|---7---------7-5-|---------3-------|
|-----7-----7-----|-----------------|-----7-----7-----|-----------------|
  E E E Q   E E E   E E Q   E E Q     E E E Q   E E E   H       E E Q

|-------11--------|-0-7-9-----6-9---|-------9---------|-------------7---|
|-----------------|---------7-------|-----------------|-----------5-----|
|---7---------7-5-|-----------------|---7---------7-5-|---------3-------|
|-----7-----7-----|-----------------|-----7-----7-----|-----------------|
  E E E Q   E E E   E E Q   E E Q     E E E Q   E E E   H       E E Q

|-------11--------|-0-7-9-----6-9---|-------11--11----|-------------7---|
|-----------------|---------7-------|-----------------|-----------5-----|
|---7---------7-5-|-----------------|---7---------7---|---------3-------|
|-----7-----7-----|-----------------|-----7---------7-|-----------------|
  E E E Q   E E E   E E Q   E E Q     E E E Q   E E E   H       E E Q

|-------11--------|-0-7-9-----6-9---|-------11--------|---4-7-9-----7---|
|-----------------|---------7-------|-----------9-----|-5---------5-----|
|---7-------7-----|-----------------|-------------7-5-|---------3-------|
|-----7-----------|-----------------|-----7-----------|-----------------|
  E E E Q   Q   E   E E Q   E E Q     Q   E Q   E E E   E E E E E E Q

|-------11--------|-0-7-9-----6-9---|-------11--------|-----9-------7-7-|
|-----------------|---------7-------|-----------------|---9-------5-----|
|---7---------7-5-|-----------------|---7---------7-5-|-7-------3-------|
|-----7-----7-----|-----------------|-----7-----7-----|-----------------|
  E E E Q   E E E   E E Q   E E Q     E E E Q   E E E   E E Q   E E Q

|-------11--------|-0-7-9-----6-9---|-------11--------|-------------7---|
|-----------------|---------7-------|-----9-----9-----|-----------5-----|
|-7-----------7-5-|-----------------|---------------5-|---------3-------|
|-----7-----7-----|-----------------|-----------------|-----------------|
  Q   E Q   E E E   E E Q   E E Q     E E E Q   Q  E E   H       E E Q

|-------11--------|-----------------|-------11--------|-0-7-9-----6-9---|
|-----9-----7-9---|-5-------7-------|-----9-----------|---------7-------|
|-7-7-------------|-----------------|-x-7-------------|-----------------|
|-----------------|-----------------|-----------------|-----------------|
  E E E Q   E Q     H       H         E E E E H         E E Q   E E Q

|-------11--------|-----0---0-------|-----------9-9-7-|-0-7-9-------10--|
|-----------------|-----------------|-------9---------|---------7-7---7-|
|-7-----------7-5-|-----------------|---7-------------|-----------------|
|-----7-----7-----|-----------------|-----------------|-----------------|
  E E E Q   E E E   Q   Q   Q   Q     E Q   Q   E E E   E E Q   E E E E 

|-------9---------|-----7-7-----9---|-------9---------|-----7-7-----9-9-|
|-----------------|-5-5-----7-7---7-|-----------------|-5-5-----7-7-----|
|-----7-----5-7-5-|-----------------|-----------7---5-|-----------------|
|-0-0-------------|-----------------|---0-7-----------|-----------------|
  E E E E E E E E   E E E E E E E E   E E E Q   Q   E   E E E E E E E E

|-------11--------|-----7-7-----9---|-----------------|-------7---------|
|-----------------|-5-5-----7-7---7-|---7---9---7-----|-----5---7-7-7-7-|
|-----------7---5-|-----------------|-----7-------7-5-|-----------------|
|---0-7-----------|-----------------|-----------------|-----------------|
  E E E Q   Q   E   E E E E E E E E   E E E Q   E E E   E E E E E E E E  

|-------11--------|-0-7-9-----6-9---|-------11--------|-0-7-9----------||
|-----------------|---------7-------|-----------------|----------------||
|-----------7---5-|-----------------|---7-------------|----------------||
|---0-7-----------|-----------------|-----7-----------|----------------||
  E E E Q   Q   E   E E Q   E E Q     E E E Q   Q.      E E Q   H


Key to rhythm notations:

W - Whole Note/Semi-Brieve
H - Half Note/Minim
Q - Quarter Note/Crotchet       Q. - Dotted Quarter Note
E - Eight Note/Quaver           E. - Dotted Eight Note
S - Sixteenth Note/Semi-Quaver  S. - Dotted Sixteenth Note
   

            
            
Suggest correction
Creating personal tab
Creating personal tab
You can edit any tab online and save it as your Personal.

You can edit, replace or remove any tab part or add personal notes – all changes will be seen only by you.

Personal tabs can be accessed anytime from any device, even offline.
Learn more »
Give kudos to tab author, rate the tab!
1 2 3 4 5
comments
print report bad tab
guest
You may want to rate the tab now too:
select rating
Wanna post a correction for this tab? Suggest correction