Oops, an error
Loading. Please wait.

Times A Wastin bass

322 views 1 this week
no commentswrite comment
1 2 3 4 5
1 last vote to show rating
add to favorites
×
Save as Personal and add changes to this tab that will be seen only by you. Learn more ›
×
You can save this tab as Personal to edit and correct it or add notes. All changes will be seen only by you. Learn more »
launch autoscroll
font size
0
reset
guitar tuner
edit
Autoscroll
slow
fast
+/-
esc
set tempo
stop
Author
                                 Time's A Wastin'
                                   Erykah Badu

Bass                                                          Erykah Badu
                                                             Shaun Martin
As played by Braylon Lacy

In 2/2

Intro

G|------------|-----------------|
D|-- 7 Bars --|-----------------|
A|--  Rest  --|-----------------|
E|------------|-----0/--12\-----|
                Q   Q   H

G||------------------|-----------------|-----------------|------------------||
D||o-2---2-----------|-----------------|-2---2-----------|-----------------o||
A||o-------------0---|(0)--------------|-------------0---|(0)--------------o||
E||------------------|-----------------|-----------------|------------------||
     Q   Q   Q   Q     W                 Q   Q   Q   Q     W               

Chorus 1

G|-----------------|-----------------|-----------------|-----------------|
D|-2---2-----------|-----------------|-2---2-----------|-----------------|
A|-------------0---|(0)--------------|-------------0---|(0)--------------|
E|-----------------|-----------------|-----------------|-----------------|
   Q   Q   Q   Q     W                 Q   Q   Q   Q     W          

G|-----------------|-----------------|-----------------|-----------------|
D|-2---2-----------|-----------------|-2---2-----------|-----------------|
A|-------------0---|(0)--------------|-------------0---|(0)--------0-2-0-|
E|-----------------|-----------------|-----------------|-----------------|
   Q   Q   Q   Q     W                 Q   Q   Q   Q     H       E E E E

G|-----------------|-----------------|-----------------|-----------------|
D|-2---2-----------|-----------------|-2---2-----------|-----------------|
A|-------------0---|(0)--------------|-------------0---|(0)----------2-0-|
E|-----------------|-----------------|-----------------|-----------------|
   Q   Q   Q   Q     W                 Q   Q   Q   Q     H.          E E

G|-----------------|-----------------|-----------------|-----------------|
D|-2---2-----------|-----------------|-2---2-----------|-------------4---|
A|-------------0---|(0)--------------|-------------0---|(0)------------2-|
E|-----------------|-----------------|-----------------|-----------------|
   Q   Q   Q   Q     W                 Q   Q   Q   Q     H.          E E

Verse 1

G|-----------------|-----------------|-----------------|-----------------|
D|-2-----4-----5/--|-7---------------|-2-----4---------|-----------------|
A|-----------------|-----0-----------|-------------0---|(0)--------------|
E|-----------------|-----------------|-----------------|-----------------|
   Q.    Q.    Q     Q   Q   H         Q.    Q.    Q     W

G|-----------------|-----------------|-----------------|-----------------|
D|-2-----4-----5/--|-7---------------|-2-----4---------|-----------------|
A|-----------------|-----0-----------|-------------0---|(0)--------------|
E|-----------------|-----------------|-----------------|-----------------|
   Q.    Q.    Q     Q   Q   H         Q.    Q.    Q     W

G|-----------------|-----------------|-----------------|-----------------|
D|-2-----4-----5/--|-7---------------|-2-----4---------|-----------------|
A|-----------------|-----0-----------|-------------0---|-0---------------|
E|-----------------|-----------------|-----------------|-----------------|
   Q.    Q.    Q     Q   Q   H         Q.    Q.    Q     W

G|-----------------|-----------------|-----------------|-----------------|
D|-2-----4-----5/--|-7---------------|-2-----4---------|-----------------|
A|-----------------|-----0-----------|-------------0---|(0)--------0-2---|
E|-----------------|-----------------|-----------------|-----------------|
   Q.    Q.    Q     Q   Q   H         Q.    Q.    Q     H       E E Q

G|-----------------|-----------------|-----------------|-----------------|
D|-2-----4-----5/--|-7---------------|-2-----4---------|-----------------|
A|-----------------|-----0-----------|-------------0---|(0)--------0-2---|
E|-----------------|-----------------|-----------------|-----------------|
   Q.    Q.    Q     Q   Q   H         Q.    Q.    Q     H       E E Q

G|-----------------|-----------------|-----------------|-----------------|
D|-2-----4-----5/--|-7---------------|-2-----4---------|-----------------|
A|-----------------|-----0-----------|-------------0---|(0)----------2---|
E|-----------------|-----------------|-----------------|-----------------|
   Q.    Q.    Q     Q   Q   H         Q.    Q.    Q     H.          Q

G|-----------------|-----------------|-----------------|-----------------|
D|-2-----4-----5/--|-7---------------|-2-----4---------|-----------------|
A|-----------------|-----0-----------|-------------0---|(0)--------------|
E|-----------------|-----------------|-----------------|-----------------|
   Q.    Q.    Q     Q   H      Q      Q.    Q.    Q     W

G|-----------------|-----------------|-----------------|-----------9-----|
D|-2-----4-----5/--|-7---------------|-2-----4---------|---------7---9---|
A|-----------------|-----0-----------|-------------0---|(0)--------------|
E|-----------------|-----------------|-----------------|-----------------|
   Q.    Q.    Q     Q   H       Q     Q.    Q.    Q     H       E E Q

Chorus 2

G|-----------------|-----------------|-----------------|-----------------|
D|-2---2-----------|-----------------|-2---2-----------|-----------------|
A|-------------0---|(0)--------------|-------------0---|(0)--------------|
E|-----------------|-----------------|-----------------|-----------------|
   Q   Q   Q   Q     W                 Q   Q   Q   Q     W         

G|-----------------|-----------------|-----------------|-----2/----------|
D|-2---2-----------|-----------------|-2---2-----------|---------4-------|
A|-------------0---|(0)--------------|-------------0---|(0)----------2---|
E|-----------------|-----------------|-----------------|-----------------|
   Q   Q   Q   Q     W                 Q   Q   Q   Q     Q   Q   Q   Q

G|-----------------|-----------------|-----------------|-----------------|
D|-2---2-----------|-----------------|-2---2-----------|-----------------|
A|-------------0---|(0)--------------|-------------0---|(0)----------2-0-|
E|-----------------|-----------------|-----------------|-----------------|
   Q   Q   Q   Q     W                 Q   Q   Q   Q     H.          E E

G|-----------------|-------------x---|-----------------|-----------------|
D|-2---2-----------|-----------------|-2---2-----------|-----------------|
A|-------------0---|(0)--------------|-------------0---|-0-------0-------|
E|-----------------|-----------------|-----------------|-----------------|
   Q   Q   Q   Q     H.          Q     Q   Q   Q   Q     H       Q   Q         

Verse 2

G|-----------------|-----------------|-----------------|-----------------|
D|-2-----4-----5/--|-7---------------|-2-----4---------|-----------------|
A|-----------------|-----0-----------|-------------0---|(0)--------------|
E|-----------------|-----------------|-----------------|-----------------|
   Q.    Q.    Q     Q   Q   H         Q.    Q.    Q     W

G|-----------------|-----------------|-----------------|-----------------|
D|-2-----4-----5/--|-7---------------|-2-----4---------|-----------------|
A|-----------------|-----0-----------|-------------0---|(0)--------------|
E|-----------------|-----------------|-----------------|-----------------|
   Q.    Q.    Q     Q   Q   H         Q.    Q.    Q     W

G|---9-------------|-----------------|-----------------|-----------------|
D|-------------5/--|-7---------------|-2-----4---------|-----------------|
A|-7---7-9---------|-----0-----------|-------------0---|(0)--------------|
E|-----------------|-----------------|-----------------|-----------------|
   Q.    Q.    Q     Q   Q   H         Q.    Q.    Q     W

G|-----------------|-----------------|-----------4-----|----/4-----------|
D|-2-----4-----5/--|-7---------------|-2-----4---------|---------4-------|
A|-----------------|-----0-----------|-------------0---|(0)----------6---|
E|-----------------|-----------------|-----------------|-----------------|
   Q.    Q.    Q     Q   Q   H         Q.    Q   E Q     Q   Q   Q   Q

G|---9-------------|-----------------|-----------4-----|-----------------|
D|-------------5/--|-7---------------|-2-----4---------|-----------------|
A|-7---7-9---------|-----0-----------|-------------0---|(0)----------2---|
E|-----------------|-----------------|-----------------|-----------------|
   Q.    Q.    Q     Q   Q   H         Q.    Q   E Q     H.          Q

G|---9-------------|-----------------|-----------------|-----------------|
D|-------------5/--|-7---------------|-2-----4---------|-----------------|
A|-7---7-9---------|-----0-----------|-------------0---|(0)--------0-2-2-|
E|-----------------|-----------------|-----------------|-----------------|
   Q.    Q.    Q     Q   Q   H         Q.    Q.    Q     H       E E E E

G|-----------------|-----------------|-----------------|-----------------|
D|-2-----4-----5/--|-7---------------|-2-----4---------|-----------------|
A|-----------------|-----0-----------|-------------0---|(0)--------------|
E|-----------------|-----------------|-----------------|-----------------|
   Q.    Q.    Q     Q   Q   H         Q.    Q.    Q     W

G|-----------------|-----------------|-----------------|-----------------|
D|-2-----4-----5/--|-7---------------|-2-----4---------|-----------------|
A|-----------------|-----0-----------|-------------0---|(0)----------2-0-|
E|-----------------|-----------------|-----------------|-----------------|
   Q.    Q.    Q     Q   Q   H         Q.    Q.    Q     H.          E E

Bridge 1

G||------------------|-----------------|-4-----4---6---7-|(7)--------------|
D||o-6-----6---8---9-|(9)------9-------|-----4-----------|-----------------|
A||o-----6-----------|-----------------|---2-------------|-----------------|
E||----4-------------|-----------------|-----------------|-----------------|
     E E E E E Q   E   H       Q   Q     E E E E E Q   E   W

G|-5-----5---7---9-|(9)--------------|-2-----2---4---6-|(6)---------------||
D|-----5-----------|-----------------|-----2-----------|-----------------o||
A|---3-------------|-----------------|---0-------------|---------7\------o||
E|-----------------|-----------------|-----------------|------------------||
   E E E E E Q   E   W                 E E E E E Q   E   H       H

G|-----------------|-----------------|-4-----4---6---7-|(7)--------------|
D|-6-----6---8---9-|(9)--------------|-----4-----------|-----------------|
A|-----6-----------|-----------------|---2-------------|-----------------|
E|---4-------------|-----------------|-----------------|-----------------|
   E E E E E Q   E   W                 E E E E E Q   E   W

G|-5-----5---7---9-|(9)--------------|-2-----2---4---6-|(6)--------------|
D|-----5-----------|-----------------|-----2-----------|-----------------|
A|---3-------------|-----------------|---0-------------|---------7\------|
E|-----------------|-----------------|-----------------|-----------------|
   E E E E E Q   E   W                 E E E E E Q   E   H       H

G|-----------------|-----------------|-4-----4---6---7-|(7)--------------|
D|-6-----6---8---9-|(9)--------------|-----4-----------|---------4\------|
A|-----6-----------|---------6\------|---2-------------|-----------------|
E|---4-------------|-----------------|-----------------|-----------------|
   E E E E E Q   E   H       H         E E E E E Q   E   H       H

G|-5-----5---7---9-|(9)--------------|-2-----2---4---6-|(6)------9\------|
D|-----5-----------|-----------------|-----2-----------|-----------------|
A|---3-------------|-----------------|---0-------------|-----------------|
E|-----------------|-----------------|-----------------|-----------------|
   E E E E E Q   E   W                 E E E E E Q   E   H       H

Chorus 3

G|-----------------|-----------------|-----------------|-----------------|
D|-2---2-----------|-----------------|-2---2-----------|-----------------|
A|-------------0---|(0)--------------|-------------0---|(0)--------------|
E|-----------------|-----------------|-----------------|-----------------|
   Q   Q   Q   Q     W                 Q   Q   Q   Q     W         

G|-----------------|-----------------|-----------------|-----2/----------|
D|-2---2-----------|-----------------|-2---2-----------|---------4-------|
A|-------------0---|(0)--------------|-------------0---|(0)----------2---|
E|-----------------|-----------------|-----------------|-----------------|
   Q   Q   Q   Q     W                 Q   Q   Q   Q     Q   Q   Q   Q

G|-----------------|-----------------|-----------------|-----------------|
D|-2---2-----------|-----------------|-2---2-----------|-----------------|
A|-------------0---|(0)--------------|-------------0---|(0)--------------|
E|-----------------|-----------------|-----------------|-----------------|
   Q   Q   Q   Q     W                 Q   Q   Q   Q     W         

G|-----------------|-----------------|-----------------|-----------------|
D|-2---2-----------|-----------------|-2---2-----------|-----------------|
A|-------------0---|(0)--------------|-----------------|-----------------|
E|-----------------|-----------------|-----------------|-----------------|
   Q   Q   Q   Q     W                 Q   Q   H         W

G|-----------------|-----------------|
D|-----------------|-----------------|
A|-----------------|-----------------|
E|-----------------|-----------------|
   W                 W

Bridge 2/Outro

G||------------------|-----------------|-4-----4---6---7-|(7)--------------|
D||o-6-----6---8---9-|(9)--------------|-----4-----------|-----------------|
A||o-----6-----------|-----------------|---2-------------|-----------------|
E||----4-------------|-----------------|-----------------|-----------------|
     E E E E E Q   E   W                 E E E E E Q   E   W

                                                                        x3
G|-5-----5---7---9-|(9)--------------|-2-----2---4---6-|(6)---------------||
D|-----5-----------|-----------------|-----2-----------|-----------------o||
A|---3-------------|-----------------|---0-------------|---------7\------o||
E|-----------------|-----------------|-----------------|------------------||
   E E E E E Q   E   W                 E E E E E Q   E   H       H

G|-----------------|-----------------|-4-----4---6---7-|(7)--------------|
D|-6-----6---8---9-|(9)--------1-2-4-|-----4-----------|-----------------|
A|-----6-----------|-----------------|---2-------------|-----------------|
E|---4-------------|-----------------|-----------------|-----------------|
   E E E E E Q   E   H       E E E E   E E E E E Q   E   W

G|-5-----5---7---9-|(9)--------------|-2-----2---4---6-|(6)--------------|
D|-----5-----------|-----------------|-----2-----------|-----------------|
A|---3-------------|-----------------|---0-------------|---------7\------|
E|-----------------|-----------------|-----------------|-----------------|
   E E E E E Q   E   W                 E E E E E Q   E   H       H

G||------------------|-----------------|-4-----4---6---7-|(7)--------------|
D||o-6-----6---8---9-|(9)--------------|-----4-----------|-----------------|
A||o-----6-----------|-----------------|---2-------------|-----------------|
E||----4-------------|-----------------|-----------------|-----------------|
     E E E E E Q   E   W                 E E E E E Q   E   W

                                                            Repeat to fade
G|-5-----5---7---9-|(9)--------------|-2-----2---4---6-|(6)---------------||
D|-----5-----------|-----------------|-----2-----------|-----------------o||
A|---3-------------|-----------------|---0-------------|---------7\------o||
E|-----------------|-----------------|-----------------|------------------||
   E E E E E Q   E   W                 E E E E E Q   E   H       H


Key to rhythm notations:

W - Whole Note/Semi-Brieve
H - Half Note/Minim
Q - Quarter Note/Crotchet       Q. - Dotted Quarter Note
E - Eight Note/Quaver           E. - Dotted Eight Note
S - Sixteenth Note/Semi-Quaver  S. - Dotted Sixteenth Note
   

            
            
Suggest correction
Creating personal tab
Creating personal tab
You can edit any tab online and save it as your Personal.

You can edit, replace or remove any tab part or add personal notes – all changes will be seen only by you.

Personal tabs can be accessed anytime from any device, even offline.
Learn more »
Give kudos to tab author, rate the tab!
1 2 3 4 5
comments
print report bad tab
guest
You may want to rate the tab now too:
select rating
Wanna post a correction for this tab? Suggest correction