Oops, an error
Loading. Please wait.

Guillotine guitar pro

version 4
version 4
28,885 views 12 this week
6 commentsread comments
1 2 3 4 5
x 18
add to favorites
guitar tuner
Autoscroll
slow
fast
+/-
esc
set tempo
stop
"Guillotine"
demo version
Play now

or get full version for Free

×
Get full version now!
Learn and play this song
in Tab Pro
Try for free

or get $10 off Welcome Bonus

Get welcome bonus
Get access to Tab Pro version of “Guillotine”!
Tab Pro is a premium guitar tab service, available on PC, Mac, iOS and Android
TRY FOR FREE
To download “Guillotine” Guitar Pro tab click button below
Please note that you must have Guitar Pro software installed on your
computer in order to view this file.
Suggest correction
comments
report bad tab
6 comments total. Showing first comments.
+1 reply
CradleOfAwesom3 41 Jun 29, 2009 01:18 AM

Why 4* this is the best version of this song I've seen, especially when it comes to the solo.
jeez those others were, excuse my french, shit
t0tz 5*

0 reply
crisis_core55 10 Sep 14, 2009 01:00 PM

Minor flaws in the solo:
|--------------- |---------------
|--------------- |---------------
|----------5-7-9 |----------6-7-9
|-----5-7-9----- |-----6-7-9-----
|5-7-9---------- |6-7-9----------
|--------------- should be: |---------------
and
|------------------------ |------------------------
|------------------------ |------------------------
|----------------13-14-16 |----------------13-14-16
|--------13-14-16-------- |--------12-14-16--------
|13-14-16---------------- |12-14-16----------------
|------------------------should be:|------------------------
everything else is just perfect =) *****

+2 reply
screamo_core 435 Sep 25, 2009 01:50 PM

solo perfect

guest
You may want to rate the tab now too:
select rating