Oops, an error
Loading. Please wait.

Guillotine tab

version 3
version 3
33,306 views 1 this week
5 commentsread comments
1 2 3 4 5
x 5
add to favorites
×
Save as Personal and add changes to this tab that will be seen only by you. Learn more ›
×
You can save this tab as Personal to edit and correct it or add notes. All changes will be seen only by you. Learn more »
launch autoscroll
font size
0
reset
how to read this tab
guitar tuner
edit
Autoscroll
slow
fast
+/-
esc
set tempo
stop
                               Guillotine 
                         Song By: Escape The Fate
                        Tabbed By:  LeDrew L'Amour

                           *Blanks are Rests*
              **See bottom for tablature and duration legends**

Lead Guitar (Tabbed in Dropped C tuning)

     W                   W                   W                 
D||-------------------|-------------------|-------------------|
A||-------------------|-------------------|-------------------|
F||-------------------|-------------------|-------------------|
C||--4----------------|--4----------------|--0----------------|
G||--4----------------|--4----------------|--0----------------|
C||--4----------------|--4----------------|--0----------------|


                      PM PM PM PM PM PM PM PM PM PM PM PM PM PM PM PM PM  
  W                   S  S  S  S  S  S  S  S  S  S  S  S  S  S  S  T  T   
-------------------|-----------------------------------------------------|
-------------------|-----------------------------------------------------|
-------------------|-----------------------------------------------------|
--0----------------|-----------------------------------------------------|
--0----------------|-----------------------------------------------------|
--0----------------|--4--4--4--4--4--4--4--4--4--4--4--4--4--4--4--4--4--|


  PM PM PM PM PM PM PM PM PM PM PM PM PM PM PM PM PM  
  S  S  S  S  S  S  S  S  S  S  S  S  S  S  S  T  T   
-----------------------------------------------------|
-----------------------------------------------------|
-----------------------------------------------------|
-----------------------------------------------------|
-----------------------------------------------------|
--0--0--0--0--0--0--0--0--2--2--2--2--2--2--2--2--2--|


  PM PM PM PM PM PM PM PM PM PM PM PM PM PM PM PM PM  
  S  S  S  S  S  S  S  S  S  S  S  S  S  S  S  T  T   
-----------------------------------------------------|
-----------------------------------------------------|
-----------------------------------------------------|
-----------------------------------------------------|
-----------------------------------------------------|
--4--4--4--4--4--4--4--4--4--4--4--4--4--4--4--4--4--|


  PM PM PM PM PM PM PM PM PM PM PM PM PM PM PM PM PM  
  S  S  S  S  S  S  S  S  S  S  S  S  S  S  S  T  T   
-----------------------------------------------------|
-----------------------------------------------------|
-----------------------------------------------------|
-----------------------------------------------------|
-----------------------------------------------------|
--0--0--0--0--0--0--0--0--2--2--2--2--2--2--2--2--2--|


  PM PM PM PM PM PM PM PM PM PM PM PM PM PM PM PM PM  
  S  S  S  S  S  S  S  S  S  S  S  S  S  S  S  T  T   
-----------------------------------------------------|
-----------------------------------------------------|
-----------------------------------------------------|
-----------------------------------------------------|
-----------------------------------------------------|
--4--4--4--4--4--4--4--4--4--4--4--4--4--4--4--4--4--|


  PM PM PM PM PM PM PM PM PM PM PM PM PM PM PM PM PM  
  S  S  S  S  S  S  S  S  S  S  S  S  S  S  S  T  T   
-----------------------------------------------------|
-----------------------------------------------------|
-----------------------------------------------------|
-----------------------------------------------------|
-----------------------------------------------------|
--0--0--0--0--0--0--0--0--2--2--2--2--2--2--2--2--2--|


  PM PM PM PM PM PM PM PM PM PM PM PM PM PM PM PM PM  
  S  S  S  S  S  S  S  S  S  S  S  S  S  S  S  T  T   
-----------------------------------------------------|
-----------------------------------------------------|
-----------------------------------------------------|
-----------------------------------------------------|
-----------------------------------------------------|
--4--4--4--4--4--4--4--4--4--4--4--4--4--4--4--4--4--|


  PM PM PM PM PM PM PM PM PM PM PM PM PM PM PM PM PM                      
  S  S  S  S  S  S  S  S  S  S  S  S  S  S  S  T  T     W                 
-----------------------------------------------------|-------------------|
-----------------------------------------------------|-------------------|
-----------------------------------------------------|-------------------|
-----------------------------------------------------|-------------------|
-----------------------------------------------------|-------------------|
--0--0--0--0--0--0--0--0--2--2--2--2--2--2--2--2--2--|-------------------|


  W                   W                   W                 
-------------------|-------------------|-------------------|
-------------------|-------------------|-------------------|
-------------------|-------------------|-------------------|
-------------------|-------------------|-------------------|
-------------------|-------------------|-------------------|
-------------------|-------------------|-------------------|


  S S S  S S  S S  S T   T  T  T S  S S  S S  S  
------------------------------------------------|
------------------------------------------------|
------------------------------------------------|
------7p-0-6p-0-4p-0-9h-11p-9p-0-7p-0-6p-0-4p-0-|
------------------------------------------------|
------------------------------------------------|


  S S S  S S  S S  S  S  S S  S S  S S  S  
------------------------------------------|
------------------------------------------|
------------------------------------------|
------7p-0-6p-0-4p-0-11p-0-9p-0-7p-0-6p-0-|
------------------------------------------|
------------------------------------------|


  S S S  S S  S S  S S  S S  S S  S S  S  
-----------------------------------------|
-----------------------------------------|
-----------------------------------------|
------7p-0-6p-0-4p-0-2p-0-4p-0-7p-0-6p-0-|
-----------------------------------------|
-----------------------------------------|


  S S S  S S  S S  S  S  S  S  S   Q       S S S S E  E  E  S S E  E   
----------------------------------------|-----------------------------|
----------------------------------------|-----------------------------|
---------------------18-18-18-18s-16----|-----------------------------|
------7p-0-6p-0-4p-0--------------------|--0-0-0-0-0--0--2--2-2-2--2--|
---------------------16-16-16-16s-14----|--0-0-0-0-0--0--2--2-2-2--2--|
----------------------------------------|--0-0-0-0-0--0--2--2-2-2--2--|


  E  E  E  E  E  E  E  E     S S S S E  E  E  S S E  E   
--------------------------|-----------------------------|
--------------------------|-----------------------------|
--------------------------|-----------------------------|
--4--4--4--4--4--4--4--4--|--0-0-0-0-0--0--2--2-2-2--2--|
--4--4--4--4--4--4--4--4--|--0-0-0-0-0--0--2--2-2-2--2--|
--4--4--4--4--4--4--4--4--|--0-0-0-0-0--0--2--2-2-2--2--|


  E  E  E  E  E  E  E  E     S S S S S S S S S S S S S S S S  
--------------------------|----------------------------------|
--------------------------|----------------------------------|
--------------------------|----------------------------------|
--4--4--4--4--4--4--4--4--|--7-7-7-7-7-7-7-7-9-9-9-9-x-x-x-2-|
--4--4--4--4--4--4--4--4--|--7-7-7-7-7-7-7-7-9-9-9-9-x-x-x-2-|
--4--4--4--4--4--4--4--4--|--7-7-7-7-7-7-7-7-9-9-9-9-x-x-x-2-|


  E  E  E  E  E  E  E  E     S S S S E  E  E  S S E  E   
--------------------------|-----------------------------|
--------------------------|-----------------------------|
--------------------------|-----------------------------|
--2--2--2--2--0--0--0--0--|--0-0-0-0-0--0--2--2-2-2--2--|
--2--2--2--2--0--0--0--0--|--0-0-0-0-0--0--2--2-2-2--2--|
--2--2--2--2--0--0--0--0--|--0-0-0-0-0--0--2--2-2-2--2--|


  |-3-| |-3-| |-3-| |-3-| |-3-|             
  S S S S S S S S S S S S S S S S S E  S S  
-------------------------------------------|
-------------------------------------------|
-------------------------------------------|
------------------------------------2--L-L-|
------------------------------------2--L-L-|
--0-0---0-0---0-0---0-0---0-0-------2--L-L-|


  PM PM PM PM PM PM PM PM PM PM PM PM PM PM PM PM PM  
  S  S  S  S  S  S  S  S  S  S  S  S  S  S  S  T  T   
-----------------------------------------------------|
-----------------------------------------------------|
-----------------------------------------------------|
-----------------------------------------------------|
-----------------------------------------------------|
--4--4--4--4--4--4--4--4--4--4--4--4--4--4--4--4--4--|


  PM PM PM PM PM PM PM PM PM PM PM PM PM PM PM PM PM  
  S  S  S  S  S  S  S  S  S  S  S  S  S  S  S  T  T   
-----------------------------------------------------|
-----------------------------------------------------|
-----------------------------------------------------|
-----------------------------------------------------|
-----------------------------------------------------|
--0--0--0--0--0--0--0--0--2--2--2--2--2--2--2--2--2--|


  PM PM PM PM PM PM PM PM PM PM PM PM PM PM PM PM PM  
  S  S  S  S  S  S  S  S  S  S  S  S  S  S  S  T  T   
-----------------------------------------------------|
-----------------------------------------------------|
-----------------------------------------------------|
-----------------------------------------------------|
-----------------------------------------------------|
--4--4--4--4--4--4--4--4--4--4--4--4--4--4--4--4--4--|


  PM PM PM PM PM PM PM PM PM PM PM PM PM PM PM PM PM  
  S  S  S  S  S  S  S  S  S  S  S  S  S  S  S  T  T   
-----------------------------------------------------|
-----------------------------------------------------|
-----------------------------------------------------|
-----------------------------------------------------|
-----------------------------------------------------|
--0--0--0--0--0--0--0--0--2--2--2--2--2--2--2--2--2--|


  PM PM PM PM PM PM PM PM PM PM PM PM PM PM PM PM PM  
  S  S  S  S  S  S  S  S  S  S  S  S  S  S  S  T  T   
-----------------------------------------------------|
-----------------------------------------------------|
-----------------------------------------------------|
-----------------------------------------------------|
-----------------------------------------------------|
--4--4--4--4--4--4--4--4--4--4--4--4--4--4--4--4--4--|


  PM PM PM PM PM PM PM PM PM PM PM PM PM PM PM PM PM  
  S  S  S  S  S  S  S  S  S  S  S  S  S  S  S  T  T   
-----------------------------------------------------|
-----------------------------------------------------|
-----------------------------------------------------|
-----------------------------------------------------|
-----------------------------------------------------|
--0--0--0--0--0--0--0--0--2--2--2--2--2--2--2--2--2--|


  PM PM PM PM PM PM PM PM PM PM PM PM PM PM PM PM PM  
  S  S  S  S  S  S  S  S  S  S  S  S  S  S  S  T  T   
-----------------------------------------------------|
-----------------------------------------------------|
-----------------------------------------------------|
-----------------------------------------------------|
-----------------------------------------------------|
--4--4--4--4--4--4--4--4--4--4--4--4--4--4--4--4--4--|


  PM PM PM PM PM PM PM PM PM PM PM PM PM PM PM PM PM                      
  S  S  S  S  S  S  S  S  S  S  S  S  S  S  S  T  T     W                 
-----------------------------------------------------|-------------------|
-----------------------------------------------------|-------------------|
-----------------------------------------------------|-------------------|
-----------------------------------------------------|-------------------|
-----------------------------------------------------|-------------------|
--0--0--0--0--0--0--0--0--2--2--2--2--2--2--2--2--2--|-------------------|


  W                   W                   W                 
-------------------|-------------------|-------------------|
-------------------|-------------------|-------------------|
-------------------|-------------------|-------------------|
-------------------|-------------------|-------------------|
-------------------|-------------------|-------------------|
-------------------|-------------------|-------------------|


  S S S  S S  S S  S T   T  T  T S  S S  S S  S  
------------------------------------------------|
------------------------------------------------|
------------------------------------------------|
------7p-0-6p-0-4p-0-9h-11p-9p-0-7p-0-6p-0-4p-0-|
------------------------------------------------|
------------------------------------------------|


  S S S  S S  S S  S  S  S S  S S  S S  S  
------------------------------------------|
------------------------------------------|
------------------------------------------|
------7p-0-6p-0-4p-0-11p-0-9p-0-7p-0-6p-0-|
------------------------------------------|
------------------------------------------|


  S S S  S S  S S  S S  S S  S S  S S  S  
-----------------------------------------|
-----------------------------------------|
-----------------------------------------|
------7p-0-6p-0-4p-0-2p-0-4p-0-7p-0-6p-0-|
-----------------------------------------|
-----------------------------------------|


  S S S  S S  S S  S  S  S  S  S   Q       S S S S E  E  E  S S E  E   
----------------------------------------|-----------------------------|
----------------------------------------|-----------------------------|
---------------------18-18-18-18s-16----|-----------------------------|
------7p-0-6p-0-4p-0--------------------|--0-0-0-0-0--0--2--2-2-2--2--|
---------------------16-16-16-16s-14----|--0-0-0-0-0--0--2--2-2-2--2--|
----------------------------------------|--0-0-0-0-0--0--2--2-2-2--2--|


  E  E  E  E  E  E  E  E     S S S S E  E  E  S S E  E   
--------------------------|-----------------------------|
--------------------------|-----------------------------|
--------------------------|-----------------------------|
--4--4--4--4--4--4--4--4--|--0-0-0-0-0--0--2--2-2-2--2--|
--4--4--4--4--4--4--4--4--|--0-0-0-0-0--0--2--2-2-2--2--|
--4--4--4--4--4--4--4--4--|--0-0-0-0-0--0--2--2-2-2--2--|


  E  E  E  E  E  E  E  E     S S S S S S S S S S S S S S S S  
--------------------------|----------------------------------|
--------------------------|----------------------------------|
--------------------------|----------------------------------|
--4--4--4--4--4--4--4--4--|--7-7-7-7-7-7-7-7-9-9-9-9-x-x-x-2-|
--4--4--4--4--4--4--4--4--|--7-7-7-7-7-7-7-7-9-9-9-9-x-x-x-2-|
--4--4--4--4--4--4--4--4--|--7-7-7-7-7-7-7-7-9-9-9-9-x-x-x-2-|


  E  E  E  E  E  E  E  E     S S S S E  E  E  S S E  E     W                 
--------------------------|-----------------------------|-------------------|
--------------------------|-----------------------------|-------------------|
--------------------------|-----------------------------|-------------------|
--2--2--2--2--0--0--0--0--|--0-0-0-0-0--0--2--2-2-2--2--|--4----------------|
--2--2--2--2--0--0--0--0--|--0-0-0-0-0--0--2--2-2-2--2--|--4----------------|
--2--2--2--2--0--0--0--0--|--0-0-0-0-0--0--2--2-2-2--2--|--4----------------|


  W                   W                   W                   W                 
-------------------|-------------------|-------------------|-------------------|
-------------------|-------------------|-------------------|-------------------|
-------------------|-------------------|-------------------|-------------------|
--4----------------|--0----------------|--0----------------|--4----------------|
--4----------------|--0----------------|--0----------------|--4----------------|
--4----------------|--0----------------|--0----------------|--4----------------|


  W                   W                   W                   W                 
-------------------|-------------------|-------------------|-------------------|
-------------------|-------------------|-------------------|-------------------|
-------------------|-------------------|-------------------|-------------------|
--4----------------|--0----------------|--0----------------|--4----------------|
--4----------------|--0----------------|--0----------------|--4----------------|
--4----------------|--0----------------|--0----------------|--4----------------|


  W                   W                   W                 
-------------------|-------------------|-------------------|
-------------------|-------------------|-------------------|
-------------------|-------------------|-------------------|
--4----------------|--0----------------|--0----------------|
--4----------------|--0----------------|--0----------------|
--4----------------|--0----------------|--0----------------|


  E  E  E  E  E  E  E  E     E  E  E  E  E  E  E  E   
--------------------------|--------------------------|
--------------------------|--------------------------|
--------------------------|--------------------------|
--7--7--7--7--7--7--7--7--|--6--6--6--6--6--6--6--6--|
--7--7--7--7--7--7--7--7--|--7--7--7--7--7--7--7--7--|
--7--7--7--7--7--7--7--7--|--6--6--6--6--6--6--6--6--|


  E  E  E  E  E  E  E  E     E  E  E  E  E  E  E  E   
--------------------------|--------------------------|
--------------------------|--------------------------|
--------------------------|--------------------------|
--4--4--4--4--4--4--4--4--|--0--0--0--0--0--0--0--0--|
--4--4--4--4--4--4--4--4--|--0--0--0--0--0--0--0--0--|
--4--4--4--4--4--4--4--4--|--0--0--0--0--0--0--0--0--|


  E  E  E  E  E  E  E  E     E  E  E  E  E  E  E  E   
--------------------------|--------------------------|
--------------------------|--------------------------|
--------------------------|--------------------------|
--7--7--7--7--7--7--7--7--|--6--6--6--6--6--6--6--6--|
--7--7--7--7--7--7--7--7--|--7--7--7--7--7--7--7--7--|
--7--7--7--7--7--7--7--7--|--6--6--6--6--6--6--6--6--|


  E  E  E  E  E  E  E  E     E  E  E  E  Q    E  E   
--------------------------|-------------------------|
--------------------------|-------------------------|
--------------------------|-------------------------|
--4--4--4--4--4--4--4--4--|--0--0--0--0--7----6-----|
--4--4--4--4--4--4--4--4--|--0--0--0--0--7----7-----|
--4--4--4--4--4--4--4--4--|--0--0--0--0--7----6-----|


  S S S S E  E  E  S S E  E     E  E  E  E  E  E  E  E   
-----------------------------|--------------------------|
-----------------------------|--------------------------|
-----------------------------|--------------------------|
--0-0-0-0-0--0--2--2-2-2--2--|--4--4--4--4--4--4--4--4--|
--0-0-0-0-0--0--2--2-2-2--2--|--4--4--4--4--4--4--4--4--|
--0-0-0-0-0--0--2--2-2-2--2--|--4--4--4--4--4--4--4--4--|


  S S S S E  E  E  S S E  E     E  E  E  E  E  E  E  E   
-----------------------------|--------------------------|
-----------------------------|--------------------------|
-----------------------------|--------------------------|
--0-0-0-0-0--0--2--2-2-2--2--|--4--4--4--4--4--4--4--4--|
--0-0-0-0-0--0--2--2-2-2--2--|--4--4--4--4--4--4--4--4--|
--0-0-0-0-0--0--2--2-2-2--2--|--4--4--4--4--4--4--4--4--|


  S S S S S S S S S S S S S S S S    E  E  E  E  E  E  E  E   
----------------------------------|--------------------------|
----------------------------------|--------------------------|
----------------------------------|--------------------------|
--7-7-7-7-7-7-7-7-9-9-9-9-x-x-x-2-|--2--2--2--2--0--0--0--0--|
--7-7-7-7-7-7-7-7-9-9-9-9-x-x-x-2-|--2--2--2--2--0--0--0--0--|
--7-7-7-7-7-7-7-7-9-9-9-9-x-x-x-2-|--2--2--2--2--0--0--0--0--|


  S S S S E  E  E  S S E  E     W                                     
-----------------------------|-------------------|-------------------|
-----------------------------|-------------------|-------------------|
-----------------------------|-------------------|-------------------|
--0-0-0-0-0--0--2--2-2-2--2--|--4----------------|-------------------|
--0-0-0-0-0--0--2--2-2-2--2--|--4----------------|-------------------|
--0-0-0-0-0--0--2--2-2-2--2--|--4----------------|-------------------|


                      W                   W                   W                 
-------------------|-------------------|-------------------|-------------------|
-------------------|-------------------|-------------------|-------------------|
-------------------|-------------------|-------------------|-------------------|
-------------------|-------------------|-------------------|-------------------|
-------------------|-------------------|-------------------|-------------------|
-------------------|-------------------|-------------------|-------------------|


  W                   S S S  S S  S S  S T   T  T  T S  S S  S S  S  
-------------------|------------------------------------------------|
-------------------|------------------------------------------------|
-------------------|------------------------------------------------|
-------------------|------7p-0-6p-0-4p-0-9h-11p-9p-0-7p-0-6p-0-4p-0-|
-------------------|------------------------------------------------|
-------------------|------------------------------------------------|


  S S S  S S  S S  S  S  S S  S S  S S  S  
------------------------------------------|
------------------------------------------|
------------------------------------------|
------7p-0-6p-0-4p-0-11p-0-9p-0-7p-0-6p-0-|
------------------------------------------|
------------------------------------------|


  S S S  S S  S S  S S  S S  S S  S S  S  
-----------------------------------------|
-----------------------------------------|
-----------------------------------------|
------7p-0-6p-0-4p-0-2p-0-4p-0-7p-0-6p-0-|
-----------------------------------------|
-----------------------------------------|


  S S S  S S  S S  S  S  S  S  S   Q         W                  
-----------------------------------------|--------------------||
-----------------------------------------|--------------------||
---------------------18-18-18-18s-16s----|--11----------------||
------7p-0-6p-0-4p-0---------------------|--------------------||
---------------------16-16-16-16s-14s----|---9----------------||
-----------------------------------------|--------------------||


***********************************************************************

Rythm Guitar (Tabbed in Dropped C tuning)

     Q    S S S S E  E  Q       Q    S S S S E  E  Q     
D||-------5-2--------2--L----|-------5-2--------2--L----|
A||-----------2-5-L----------|-----------2-5-L----------|
F||--------------------------|--------------------------|
C||--------------------------|--------------------------|
G||--------------------------|--------------------------|
C||--------------------------|--------------------------|


  Q    S S S S E  E  Q       Q    S S S S E  E  Q     
-------5-2--------2--L----|-------5-2--------2--L----|
-----------2-5-L----------|-----------2-5-L----------|
--------------------------|--------------------------|
--------------------------|--------------------------|
--------------------------|--------------------------|
--------------------------|--------------------------|


  Q    T T E  S E  T T S S S S S    Q    T T E  S S S  T S S S S S T  
---------------------------------|-----------------------------------|
---------------------------------|-----------------------------------|
---------------------------------|-----------------------------------|
---------------------------------|-----------------------------------|
-------5-4----5----7---5-L-4-0---|-------5-4----7---7-/9-4-5-4-2-0-L-|
---------------------------------|-----------------------------------|


  Q    T T E  S E  T T S S S S S    Q    T T E  S S S  T S S S S S T  
---------------------------------|-----------------------------------|
---------------------------------|-----------------------------------|
---------------------------------|-----------------------------------|
---------------------------------|-----------------------------------|
-------5-4----5----7---5-L-4-0---|-------5-4----7---7-/9-4-5-4-2-0-L-|
---------------------------------|-----------------------------------|


  Q    T T E  S E  T T S S S S S    Q    T T E  S S S  T S S S S S T  
---------------------------------|-----------------------------------|
---------------------------------|-----------------------------------|
---------------------------------|-----------------------------------|
---------------------------------|-----------------------------------|
-------5-4----5----7---5-L-4-0---|-------5-4----7---7-/9-4-5-4-2-0-L-|
---------------------------------|-----------------------------------|


  Q    T T E  S E  T T S S S S S    Q    T T E  S S S  T S S S S S T  
---------------------------------|-----------------------------------|
---------------------------------|-----------------------------------|
---------------------------------|-----------------------------------|
---------------------------------|-----------------------------------|
-------5-4----5----7---5-L-4-0---|-------5-4----7---7-/9-4-5-4-2-0-L-|
---------------------------------|-----------------------------------|


  S S H        Q    E     S S Q    E  S S E  S S E     S S H        Q    E   
-----------------------|----------------------------|-----------------------|
-----------------------|----------------------------|-----------------------|
-----------------------|----------------------------|-----------------------|
-----------------------|----------------------------|-----------------------|
--0-0------------------|--2-2---------2-2----2-2----|--4-4------------------|
--0-0------------------|--2-2---------2-2----2-2----|--4-4------------------|


  S S Q    E  S S E  S S E     S S H        Q    E   
----------------------------|-----------------------|
----------------------------|-----------------------|
----------------------------|-----------------------|
----------------------------|-----------------------|
--7-7---------2-2----2-2----|--0-0------------------|
--7-7---------2-2----2-2----|--0-0------------------|


  S S Q    E  S S E  S S E     S S H        Q    E   
----------------------------|-----------------------|
----------------------------|-----------------------|
----------------------------|-----------------------|
----------------------------|-----------------------|
--2-2---------2-2----2-2----|--4-4------------------|
--2-2---------2-2----2-2----|--4-4------------------|


  S S Q    E   S  S  S  S  Q        S  S  S  S  S  S S S  S  S  S  S  S  S S S  
--------------------------------|----------------------------------------------|
--------------------------------|----------------------------------------------|
--------------14-14-14-14-13----|--14-14-14-13-13-13-9-9-14-14-14-13-13-13-9-9-|
--------------------------------|----------------------------------------------|
--7-7---------12-12-12-12-11----|--12-12-12-11-11-11-7-7-12-12-12-11-11-11-7-7-|
--7-7---------------------------|----------------------------------------------|


  S S S S S S  S  S  S  S  S  S  S  S  S  S  
--------------------------------------------|
--------------------------------------------|
--9-9-9-9-9-9-11-11-11-11-11-11-11-11-11-11-|
--------------------------------------------|
--7-7-7-7-7-7--9--9--9--9--9--9--9--9--9--9-|
--------------------------------------------|


   S  S  S  S  S  S S S  S  S  S  S  S  S S S  
----------------------------------------------|
----------------------------------------------|
--14-14-14-13-13-13-9-9-14-14-14-13-13-13-9-9-|
----------------------------------------------|
--12-12-12-11-11-11-7-7-12-12-12-11-11-11-7-7-|
----------------------------------------------|


  S S S S S S  S  S  S  S  S  S  S  S  S  S  
--------------------------------------------|
--------------------------------------------|
--9-9-9-9-9-9-11-11-11-11-11-11-11-11-11-11-|
--------------------------------------------|
--7-7-7-7-7-7--9--9--9--9--9--9--9--9--9--9-|
--------------------------------------------|


   S  S  S  S  S  S  S  S  S  S  S  S S S S S  
----------------------------------------------|
----------------------------------------------|
--14-14-14-14-14-14-14-14-16-16-16-16-------9-|
--------------------------------------x-x-x---|
--12-12-12-12-12-12-12-12-14-14-14-14-x-x-x-7-|
--------------------------------------x-x-x---|


  S S S S S S  S  S  S  S  S  S  S  S  S  S  
--------------------------------------------|
--------------------------------------------|
--9-9-9-9-9-9-11-11-11-11-11-11-11-11-11-11-|
--------------------------------------------|
--7-7-7-7-7-7--9--9--9--9--9--9--9--9--9--9-|
--------------------------------------------|


   S  S  S  S  S  S S S  S  S  S  S  S  S S S    W                 
----------------------------------------------|-------------------|
----------------------------------------------|-------------------|
--14-14-14-13-13-13-9-9-14-14-14-13-13-13-9-9-|-------------------|
----------------------------------------------|-------------------|
--12-12-12-11-11-11-7-7-12-12-12-11-11-11-7-7-|-------------------|
----------------------------------------------|-------------------|


  Q    T T E  S E  T T S S S S S    Q    T T E  S S S  T S S S S S T  
---------------------------------|-----------------------------------|
---------------------------------|-----------------------------------|
---------------------------------|-----------------------------------|
---------------------------------|-----------------------------------|
-------5-4----5----7---5-L-4-0---|-------5-4----7---7-/9-4-5-4-2-0-L-|
---------------------------------|-----------------------------------|


  Q    T T E  S E  T T S S S S S    Q    T T E  S S S  T S S S S S T  
---------------------------------|-----------------------------------|
---------------------------------|-----------------------------------|
---------------------------------|-----------------------------------|
---------------------------------|-----------------------------------|
-------5-4----5----7---5-L-4-0---|-------5-4----7---7-/9-4-5-4-2-0-L-|
---------------------------------|-----------------------------------|


  Q    T T E  S E  T T S S S S S    Q    T T E  S S S  T S S S S S T  
---------------------------------|-----------------------------------|
---------------------------------|-----------------------------------|
---------------------------------|-----------------------------------|
---------------------------------|-----------------------------------|
-------5-4----5----7---5-L-4-0---|-------5-4----7---7-/9-4-5-4-2-0-L-|
---------------------------------|-----------------------------------|


  Q    T T E  S E  T T S S S S S    Q    T T E  S S S  T S S S S S T  
---------------------------------|-----------------------------------|
---------------------------------|-----------------------------------|
---------------------------------|-----------------------------------|
---------------------------------|-----------------------------------|
-------5-4----5----7---5-L-4-0---|-------5-4----7---7-/9-4-5-4-2-0-L-|
---------------------------------|-----------------------------------|


  S S H        Q    E     S S Q    E  S S E  S S E     S S H        Q    E   
-----------------------|----------------------------|-----------------------|
-----------------------|----------------------------|-----------------------|
-----------------------|----------------------------|-----------------------|
-----------------------|----------------------------|-----------------------|
--0-0------------------|--2-2---------2-2----2-2----|--4-4------------------|
--0-0------------------|--2-2---------2-2----2-2----|--4-4------------------|


  S S Q    E  S S E  S S E     S S H        Q    E   
----------------------------|-----------------------|
----------------------------|-----------------------|
----------------------------|-----------------------|
----------------------------|-----------------------|
--7-7---------2-2----2-2----|--0-0------------------|
--7-7---------2-2----2-2----|--0-0------------------|


  S S Q    E  S S E  S S E     S S H        Q    E   
----------------------------|-----------------------|
----------------------------|-----------------------|
----------------------------|-----------------------|
----------------------------|-----------------------|
--2-2---------2-2----2-2----|--4-4------------------|
--2-2---------2-2----2-2----|--4-4------------------|


  S S Q    E   S  S  S  S  Q        S  S  S  S  S  S S S  S  S  S  S  S  S S S  
--------------------------------|----------------------------------------------|
--------------------------------|----------------------------------------------|
--------------14-14-14-14-13----|--14-14-14-13-13-13-9-9-14-14-14-13-13-13-9-9-|
--------------------------------|----------------------------------------------|
--7-7---------12-12-12-12-11----|--12-12-12-11-11-11-7-7-12-12-12-11-11-11-7-7-|
--7-7---------------------------|----------------------------------------------|


  S S S S S S  S  S  S  S  S  S  S  S  S  S  
--------------------------------------------|
--------------------------------------------|
--9-9-9-9-9-9-11-11-11-11-11-11-11-11-11-11-|
--------------------------------------------|
--7-7-7-7-7-7--9--9--9--9--9--9--9--9--9--9-|
--------------------------------------------|


   S  S  S  S  S  S S S  S  S  S  S  S  S S S  
----------------------------------------------|
----------------------------------------------|
--14-14-14-13-13-13-9-9-14-14-14-13-13-13-9-9-|
----------------------------------------------|
--12-12-12-11-11-11-7-7-12-12-12-11-11-11-7-7-|
----------------------------------------------|


  S S S S S S  S  S  S  S  S  S  S  S  S  S  
--------------------------------------------|
--------------------------------------------|
--9-9-9-9-9-9-11-11-11-11-11-11-11-11-11-11-|
--------------------------------------------|
--7-7-7-7-7-7--9--9--9--9--9--9--9--9--9--9-|
--------------------------------------------|


   S  S  S  S  S  S  S  S  S  S  S  S S S S S  
----------------------------------------------|
----------------------------------------------|
--14-14-14-14-14-14-14-14-16-16-16-16-------9-|
--------------------------------------x-x-x---|
--12-12-12-12-12-12-12-12-14-14-14-14-x-x-x-7-|
--------------------------------------x-x-x---|


  S S S S S S  S  S  S  S  S  S  S  S  S  S  
--------------------------------------------|
--------------------------------------------|
--9-9-9-9-9-9-11-11-11-11-11-11-11-11-11-11-|
--------------------------------------------|
--7-7-7-7-7-7--9--9--9--9--9--9--9--9--9--9-|
--------------------------------------------|


   S  S  S  S  S  S S S  S  S  S  S  S  S S S    Q    S S S S E  E  Q     
----------------------------------------------|-------5-2--------2--L----|
----------------------------------------------|-----------2-5-L----------|
--14-14-14-13-13-13-9-9-14-14-14-13-13-13-9-9-|--------------------------|
----------------------------------------------|--------------------------|
--12-12-12-11-11-11-7-7-12-12-12-11-11-11-7-7-|--------------------------|
----------------------------------------------|--------------------------|


  Q    S S S S E  E  Q       Q    S S S S E  E  Q     
-------5-2--------2--L----|-------5-2--------2--L----|
-----------2-5-L----------|-----------2-5-L----------|
--------------------------|--------------------------|
--------------------------|--------------------------|
--------------------------|--------------------------|
--------------------------|--------------------------|


  Q    S S S S E  E  Q       Q    S S S S E  E  Q     
-------5-2--------2--L----|-------5-2--------2--L----|
-----------2-5-L----------|-----------2-5-L----------|
--------------------------|--------------------------|
--------------------------|--------------------------|
--------------------------|--------------------------|
--------------------------|--------------------------|


  Q    S S S S E  E  Q       Q    S S S S E  E  Q     
-------5-2--------2--L----|-------5-2--------2--L----|
-----------2-5-L----------|-----------2-5-L----------|
--------------------------|--------------------------|
--------------------------|--------------------------|
--------------------------|--------------------------|
--------------------------|--------------------------|


  Q    S S S S E  E  Q       Q    S S S S E  E  Q     
-------5-2--------2--L----|-------5-2--------2--L----|
-----------2-5-L----------|-----------2-5-L----------|
--------------------------|--------------------------|
--------------------------|--------------------------|
--------------------------|--------------------------|
--------------------------|--------------------------|


  Q    S S S S E  E  Q       Q    S S S S E  E  Q     
-------5-2--------2--L----|-------5-2--------2--L----|
-----------2-5-L----------|-----------2-5-L----------|
--------------------------|--------------------------|
--------------------------|--------------------------|
--------------------------|--------------------------|
--------------------------|--------------------------|


  Q    S S S S E  E  Q       Q    Q     E     E   E   E   
-------5-2--------2--L----|------------------------------|
-----------2-5-L----------|--------------------------17--|
--------------------------|------------16b--\16--14------|
--------------------------|------------------------------|
--------------------------|------------------------------|
--------------------------|------------------------------|


   Q.     E   E   Q     E      E.   E.   E   E.   E.   E   
---------------------------|--16---17---19--16---17-------|
---L---------19--17-----L--|--------------------------17--|
---------------------------|------------------------------|
---------------------------|------------------------------|
---------------------------|------------------------------|
---------------------------|------------------------------|


   E.   E.   E  E.  E.  E   
---------------------------|
---------------------------|
--16---14---13--9---L---L--|
---------------------------|
---------------------------|
---------------------------|


      TP TP                                                             
  T T T  T  T T T T T T T T T T T T T T T T T T T T T T T  T  T  T T T  
-----------------------------------------------------------------------|
----------------------------------------7-7-7-9-9-9----------------9-9-|
---------6--6-6-7-7-7-9-9-9-7-7-7-9-9-9-------------9-9-9-11-11-11-----|
--7-7-7----------------------------------------------------------------|
-----------------------------------------------------------------------|
-----------------------------------------------------------------------|


  T  T  T  T  T  T  T T T T  T  T  T  T  T  T T T T  T  T  T  T  T  T  S  S  S  
--------------------------------------------------------------------------------
--9-10-10-10----------9-9-9-10-10-10-12-12-12-9-9-9-10-10-10-12-12-12-10-12-10-1
-------------11-11-11-----------------------------------------------------------
--------------------------------------------------------------------------------
--------------------------------------------------------------------------------
--------------------------------------------------------------------------------


   Q      Q     E   E   Q        E    E   Q     Q     E  E   
-----------------------------|-----------------17----16-----|
--12b----12----10--10---L----|--12b--12--10-----------------|
-----------------------------|------------------------------|
-----------------------------|------------------------------|
-----------------------------|------------------------------|
-----------------------------|------------------------------|


   S  S  S  S  S  S S S  S  S  S  S  S  S S S  
----------------------------------------------|
----------------------------------------------|
--14-14-14-13-13-13-9-9-14-14-14-13-13-13-9-9-|
----------------------------------------------|
--12-12-12-11-11-11-7-7-12-12-12-11-11-11-7-7-|
----------------------------------------------|


  S S S S S S  S  S  S  S  S  S  S  S  S  S  
--------------------------------------------|
--------------------------------------------|
--9-9-9-9-9-9-11-11-11-11-11-11-11-11-11-11-|
--------------------------------------------|
--7-7-7-7-7-7--9--9--9--9--9--9--9--9--9--9-|
--------------------------------------------|


   S  S  S  S  S  S S S  S  S  S  S  S  S S S  
----------------------------------------------|
----------------------------------------------|
--14-14-14-13-13-13-9-9-14-14-14-13-13-13-9-9-|
----------------------------------------------|
--12-12-12-11-11-11-7-7-12-12-12-11-11-11-7-7-|
----------------------------------------------|


  S S S S S S  S  S  S  S  S  S  S  S  S  S  
--------------------------------------------|
--------------------------------------------|
--9-9-9-9-9-9-11-11-11-11-11-11-11-11-11-11-|
--------------------------------------------|
--7-7-7-7-7-7--9--9--9--9--9--9--9--9--9--9-|
--------------------------------------------|


   S  S  S  S  S  S  S  S  S  S  S  S S S S S  
----------------------------------------------|
----------------------------------------------|
--14-14-14-14-14-14-14-14-16-16-16-16-------9-|
--------------------------------------x-x-x---|
--12-12-12-12-12-12-12-12-14-14-14-14-x-x-x-7-|
--------------------------------------x-x-x---|


  S S S S S S  S  S  S  S  S  S  S  S  S  S  
--------------------------------------------|
--------------------------------------------|
--9-9-9-9-9-9-11-11-11-11-11-11-11-11-11-11-|
--------------------------------------------|
--7-7-7-7-7-7--9--9--9--9--9--9--9--9--9--9-|
--------------------------------------------|


   S  S  S  S  S  S S S  S  S  S  S  S  S S S    W                  
----------------------------------------------|--------------------|
----------------------------------------------|--------------------|
--14-14-14-13-13-13-9-9-14-14-14-13-13-13-9-9-|--------------------|
----------------------------------------------|--4s----------------|
--12-12-12-11-11-11-7-7-12-12-12-11-11-11-7-7-|--4s----------------|
----------------------------------------------|--4s----------------|


  H         H                               S S H        Q    E   
---------------------|-------------------|-----------------------|
---------------------|-------------------|-----------------------|
---------------------|-------------------|-----------------------|
--LS--------0--------|-------------------|-----------------------|
--LS--------0--------|-------------------|--0-0------------------|
--LS--------0--------|-------------------|--0-0------------------|


  S S Q    E  S S E  S S E     S S H        Q    E   
----------------------------|-----------------------|
----------------------------|-----------------------|
----------------------------|-----------------------|
----------------------------|-----------------------|
--2-2---------2-2----2-2----|--4-4------------------|
--2-2---------2-2----2-2----|--4-4------------------|


  S S Q    E  S S E  S S E     S S H        Q    E   
----------------------------|-----------------------|
----------------------------|-----------------------|
----------------------------|-----------------------|
----------------------------|-----------------------|
--7-7---------2-2----2-2----|--0-0------------------|
--7-7---------2-2----2-2----|--0-0------------------|


  S S Q    E  S S E  S S E     S S H        Q    E     S S H        Q    E   
----------------------------|-----------------------|-----------------------|
----------------------------|-----------------------|-----------------------|
----------------------------|-----------------------|-----------------------|
----------------------------|-----------------------|-----------------------|
--2-2---------2-2----2-2----|--4-4------------------|--7-7------------------|
--2-2---------2-2----2-2----|--4-4------------------|--7-7------------------|


  W                  
-------------------||
-------------------||
-------------------||
--4----------------||
--4----------------||
--4----------------||

***********************************************************************

Duration Legend
---------------
W - whole
H - half
Q - quarter
E - 8th
S - 16th
T - 32nd
X - 64th
. - note dotted
|-n-|  - n-tuplets


Tablature Legend
----------------
L - tied note
x - dead note
g - grace note
(n) - ghost note
> - accentuded note
NH - natural harmonic
AH - artificial harmonic
TH - tapped harmonic
SH - semi harmonic
PH - pitch harmonic
h - hammer on
p - pull off
b - bend
br - bendRelease
pb - preBend
pbr - preBendRelease
brb - bendReleaseBend
\n/ - tremolo bar dip
\n - tremolo bar dive
-/n - tremolo bar Release up
/n\ - tremolo bar inverted dip
/n - tremolo bar return
-\n - tremolo bar Release down
S - shift slide
s - legato slide
/ -  slide into from below or out of upwards
\ -  slide into from above or out of downwards
~ - vibrato
W - wide vibrato
tr - trill
TP - tremolo picking
T - tapping
S - slap
P - pop
< - fade in
^ - brush up
v - brush down

            
            
Suggest correction
Creating personal tab
Creating personal tab
You can edit any tab online and save it as your Personal.

You can edit, replace or remove any tab part or add personal notes – all changes will be seen only by you.

Personal tabs can be accessed anytime from any device, even offline.
Learn more »
comments
print report bad tab
5 comments total. Showing first comments. show 1 bad comment
+3 reply
psychopath188 10 Jul 24, 2008 09:20 AM

i cant belive no ones looked at this tab yet it kicks ass!!! execelent job, i think the solos not completley right though, but excelent job! :]

+3 reply
Phildo64 10 Sep 20, 2008 08:57 AM

the palm mute part at the beginning is a littttle more complicated than that

lol

guest
You may want to rate the tab now too:
select rating
Wanna post a correction for this tab? Suggest correction