Oops, an error
Loading. Please wait.
We have an official Make Up tab made by UG professional guitarists. Check out the tab »
×
568 views 1 this week
1 commentread comment
1 2 3 4 5
3 more votes to show rating
add to favorites
×
Save as Personal and add changes to this tab that will be seen only by you. Learn more ›
×
You can save this tab as Personal to edit and correct it or add notes. All changes will be seen only by you. Learn more »
launch autoscroll
font size
0
reset
how to read this tab
guitar tuner
edit
Autoscroll
slow
fast
+/-
esc
set tempo
stop
----------------------------------------------------------------------------
                             Makeup - Escape The Fate
----------------------------------------------------------------------------

Tuning: CGCFAD
 -------------
| /   slide up |
| ~   vibrato  |
| *   Mute note|
 --------------

  Intro: I'm not sure how many times you you have to do the octaves but you
         hear it when it changes octaves.
e|---------------------------------------|
B|---------------------------------------|
G|---------------------------7--9--11----|
D|---9-----5-----4/5---0-----x--x--x-----|
A|---9-4X--5-4X--4/5---0-3X--5--7--9-----|
E|---9-----5-----4/5---0-----------------|

e|---------------------------------------|
B|---------------------------------------|
G|---------------------------7-11--9--7--|
D|---9-----5-----4/5---0-----x--x--x--x--|
A|---9-4X--5-4X--4/5---0-3X--5--9--7--5--|
E|---9-----5-----4/5---0-----------------|

e|---------------------------------------|
B|---------------------------------------|
G|---------------------------7--9--11----|
D|---9-----5-----4/5---0-----x--x--x-----|
A|---9-4X--5-4X--4/5---0-3X--5--7--9-----|
E|---9-----5-----4/5---0-----------------|

e|-------------------------|
B|-------------------------|
G|-------------------------|
D|---9-----5-----4/5---0~--|
A|---9-4X--5-4X--4/5---0~--|
E|---9-----5-----4/5---0~--|

  Verse: you'll hear when you change frets.
e|---------------------|
B|---------------------|
G|---------------------|
D|---0--4--5--8--7-----| 2x
A|---0--4--5--8--7-----|
E|---0--4--5--8--7-----|
     *  *  *  *  *

  Chorus:
e|---------------------------------------|
B|---------------------------------------|
G|---------------------------7--9--11----|
D|---9-----5-----4/5---0-----x--x--x-----|
A|---9-4X--5-4X--4/5---0-3X--5--7--9-----|
E|---9-----5-----4/5---0-----------------|

e|---------------------------------------|
B|---------------------------------------|
G|---------------------------7-11--9--7--|
D|---9-----5-----4/5---0-----x--x--x--x--|
A|---9-4X--5-4X--4/5---0-3X--5--9--7--5--|
E|---9-----5-----4/5---0-----------------|

e|---------------------------------------------------------|
B|---------------------------------------------------------|
G|---------------------------------------------------------|
D|---9-----5-----0-----7------7-------9-----5-----0~-------|
A|---9-5x--5-5x--0-5x--7-5x---7-1x----9-5x--5-5x--0~-------|
E|---9-----5-----0-----7------7-------9-----5-----0~-------|

  Verse 2: Same as last Verse
  Chorus 2: Same as last Chorus

  Bridge:
e|--------------------------|
B|-----------11-------------|
G|--6-7-6-7-----7-6-7-------|
D|--------------------------|2x
A|--------------------------|
E|--------------------------|

e|--------------------------|
B|--------------------------|
G|--------------------------|
D|--5~-5~--0~--7~-8~--------|
A|--5~-5~--0~--7~-8~--------|
E|--5~-5~--0~--7~-8~--------|

e|--------------------------|
B|-----------11-------------|
G|--6-7-6-7-----7-6-7-------|
D|--------------------------|2x
A|--------------------------|
E|--------------------------|

e|--------------------------|
B|--------------------------|
G|--------------------------|
D|--5~-5~--0~-7~-7/8/9~-----|
A|--5~-5~--0~-7~-7/8/9~-----|
E|--5~-5~--0~-7~-7/8/9~-----|
  
   Interlude:? This is the part where Ronnie sings 
              "As make up runs down your cheeks
               You found that you are lost again
               Try to make your way back home
               Found that you're alone"
  
  Outro: just listen carefully
e|---------------------------------|
B|---------------------------------|
G|--7-6-7/3----6-7/3---6-7/9--11---|
D|---------------------------------|
A|---------------------------------|
E|---------------------------------|

e|---------------------------------|
B|---------------------------------|
G|--7-6-7/3----6-7/3---6-7/9~------|
D|---------------------------------|
A|---------------------------------|
E|---------------------------------|

Also this is off the new version
I didnt relized that there already were tabs to this song that were alike i just 
tabbed this of this http://www.youtube.com/watch?v=dCaheMMl_68

            
            
Suggest correction
Creating personal tab
Creating personal tab
You can edit any tab online and save it as your Personal.

You can edit, replace or remove any tab part or add personal notes – all changes will be seen only by you.

Personal tabs can be accessed anytime from any device, even offline.
Learn more »
Give kudos to tab author, rate the tab!
1 2 3 4 5
comments
print report bad tab
1 comment total.
0 reply
peroxowhygen 62 Jun 18, 2010 09:06 AM

On the Verses do not palm mute the 8 & 7.

guest
You may want to rate the tab now too:
select rating
Wanna post a correction for this tab? Suggest correction