Oops, an error
Loading. Please wait.
We have an official My Apocalypse tab made by UG professional guitarists. Check out the tab »
×
7,456 views 1 this week
1 commentread comment
1 2 3 4 5
x 3
add to favorites
×
Save as Personal and add changes to this tab that will be seen only by you. Learn more ›
×
You can save this tab as Personal to edit and correct it or add notes. All changes will be seen only by you. Learn more »
launch autoscroll
font size
0
reset
guitar tuner
edit
Autoscroll
slow
fast
+/-
esc
set tempo
stop
My Apocalypse Bass Tabs!
[{Note!: Ignore the "-—" Bug that appears on 2:03 and it should be the best 
tab I can put together for this song.}]

Tuning: Drop C

==============================================================================
| /  slide up
| \  slide down
| h  hammer-on
| p  pull-off
| ~  Sustain Note
| +  harmonic
| x  Mute note
===============================================================================


Chorus x2 (0:09 - 0:29)
F|---------------------------------------------------------------------------|
C|---------------------------------------------------------------------------|
G|---------------------------------------------------------------------------|
C|-77777777--7777777-33333333-1010109109-------------------------------------|

F|-------------------------------------|
C|-------------------------------------|
G|-------------------------------------|
C|-77777777--7777777-33333333--0000000-|
Bridge (0:30 - 0:39)
F|---------------------------------------------------------------------------|
C|---------------------------------------------------------------------------|
G|---------------------------------------------------------------------------|
C|-7~~~~~~~~~~~~~~~~-3~~~~~~~~-10p9-10p9~~~~---------------------------------|

F|---------------------------------------------------------------------------|
C|---------------------------------------------------------------------------|
G|---------------------------------------------------------------------------|
C|-7~~~~~~~~~~~~~~~~-3~~~~~~~~-00000000--------------------------------------|
Verse  x2 (0:40 - 0:58)
F|---------------------------------------------------------------------------|
C|---------------------------------------------------------------------------|
G|---------------------------------------------------------------------------|
C|-7~~~~7~7~7~~~~~~~~~~-3~~~~3~3~~~-10p9-10p9~~~~----------------------------|

F|---------------------------------------------------------------------------|
C|---------------------------------------------------------------------------|
G|---------------------------------------------------------------------------|
C|-7~~~~7~7~7~~~~~~~~~-3~~~~3~3~~~-000000~~----------------------------------|

Pre-Chorus x2(0:59 - 1:08)
F|---------------------------------------------------------------------------|
C|---------------------------------------------------------------------------|
G|---------------------------------------------------------------------------|
C|--77---77---33---1010---77---77---33---0~~~--0000--------------------------|
Chorus x2 (1:09 - 1:31)
F|---------------------------------------------------------------------------|
C|---------------------------------------------------------------------------|
G|---------------------------------------------------------------------------|
C|-77777777--7777777-33333333-1010109109-------------------------------------|

F|-------------------------------------|-------------------------------------|
C|-------------------------------------|-------------------------------------|
G|-------------------------------------|-------------------------------------|
C|-77777777--7777777-33333333--0000000-|--3/15-------------------------------|

Verse (1:31 - 1:52)
F|---------------------------------------------------------------------------|
C|---------------------------------------------------------------------------|
G|---------------------------------------------------------------------------|
C|-7777777777777777-33333333-1010109109--------------------------------------|

F|---------------------------------------------------------------------------|
C|---------------------------------------------------------------------------|
G|---------------------------------------------------------------------------|
C|-7777777777777777-33333333-00000000----------------------------------------|




F|-----------------------------------------------------------------------------|
C|-----------------------------------------------------------------------------|
G|-----------------------------------------------------------------------------|
C|-7-7-7-7-7-7-7773-3-3-333-101010-1010----------------------------------------|

F|-----------------------------------------------------------------------------|
C|-----------------------------------------------------------------------------|
G|-----------------------------------------------------------------------------|
C|-7-7-7-7-7-7-7773-3-3-333-000-00-3/15----------------------------------------|

Pre-Chorus x2 (1:53 - 2:02)
F|---------------------------------------------------------------------------|
C|---------------------------------------------------------------------------|
G|---------------------------------------------------------------------------|
C|--77---77---33---1010---77---77---33---0~~~--0000--------------------------|

Chorus x2 (2:03 - 2:31)
F|---------------------------------------------------------------------------|
C|---------------------------------------------------------------------------|
G|---------------------------------------------------------------------------|
C|-77777777--7777777-33333333-1010109109-------------------------------------|

F|-------------------------------------|-------------------------------------|
C|-------------------------------------|-------------------------------------|
G|-------------------------------------|-------------------------------------|
C|-77777777--7777777-33333333-—0000000-|3~~----12~~--------7~~-----5~--------|

Bridge (2:32 - 2:41)
F|---------------------------------------------------------------------------|
C|---------------------------------------------------------------------------|
G|---------------------------------------------------------------------------|
C|-3~-------12~-------7~-------5~--------------------------------------------|

Bridge x4 (2:42 - 3:20)[Build up Gradually]
F|---------------------------------------------------------------------------|
C|---------------------------------------------------------------------------|
G|---------------------------------------------------------------------------|
C|-3-3-333333-12-12-1212121212-10-7-7-777777-5-5-555555----------------------|

Solo x4 (3:21 – 4:01)
F|---------------------------------------------------------------------------|
C|---------------------------------------------------------------------------|
G|----------------------------------------------------------------5h6-10h11--|
C|-3333333333333333-000000000000001010\7777777777777777-55555555-------------|

Last Chorus x2 (4:02 - 4:19)
F|---------------------------------------------------------------------------|
C|---------------------------------------------------------------------------|
G|---------------------------------------------------------------------------|
C|-3333333333333333-0000000000000000-7777777777777777-5555555555555555-------|

End On (4:20)
F|-------------------------------------------------------------------------------|
C|-------------------------------------------------------------------------------|
G|-------------------------------------------------------------------------------|
C|-3~~~~~~~~~~~~~~~~-0~~~~~~~~~~~~~~~--7~~~~~~~~~~~~~~~~~~5~~~~~~~~~~~~~~3~~~~~~~|


            
            
Suggest correction
Creating personal tab
Creating personal tab
You can edit any tab online and save it as your Personal.

You can edit, replace or remove any tab part or add personal notes – all changes will be seen only by you.

Personal tabs can be accessed anytime from any device, even offline.
Learn more »
Give kudos to tab author, rate the tab!
1 2 3 4 5
comments
print report bad tab
1 comment total.
0 reply
Pandasrule4ever 52 Apr 21, 2012 07:20 PM

Good tab but holy crap its almost ALL on low C!!! D:

guest
Wanna post a correction for this tab? Suggest correction