Oops, an error
Loading. Please wait.
We have an official Not Good Enough For Truth In Cliche tab made by UG professional guitarists. Check out the tab »
×
11,706 views 1 this week
no commentswrite comment
1 2 3 4 5
1 last vote to show rating
add to favorites
×
Save as Personal and add changes to this tab that will be seen only by you. Learn more ›
×
You can save this tab as Personal to edit and correct it or add notes. All changes will be seen only by you. Learn more »
launch autoscroll
font size
0
reset
how to read this tab
guitar tuner
edit
Autoscroll
slow
fast
+/-
esc
set tempo
stop
-------------------------------------------------------------------------------
        Not Good Enough for Truth in Cliche - Escape the Fate
-------------------------------------------------------------------------------
Tabbed by:Latif Woods
Website:www.myspace.com/tviscomcastic

Tuning:Drop C.
Keygen:
|~ Let Ring
|. Palm Mute
|* Pinch Harmonic


guitar 2
D|---------------------------------------------------------------------------|
A|-----0---------------0-----------------------------------------------------|
F|---------2---------------0-----------0---0-----------0---0-----------------|
C|---0---0---0---0---0---0---0---0---0---0---0---0---0---0---0---0------(x2)-|
G|-3-----------3---5-----------5---2-----------2---3-----------3-------------|
C|---------------------------------------------------------------------------|
pm . . . . . . . . . . . . . . . . . . . . . . . . . . . . . . . .
second time guitar 1
D|---------------------------------------------------------------------------|
A|---------------------------------------------------------------------------|
F|-----------------------------------------------------------7~--------------|
C|-----------------------------------------------------------7~--------------|
G|-----------------------------------------------------------5~--------------|
C|---------------------------------------------------------------------------|

guitar 1
D|--------------------------------------------------------------------------------------------------|
A|--------------------------------------------------------------------------------------------------|
F|-9-9-----9--9--9-----9--11-11--11-11-11--11--7--7-----7--7--7--7--7---12--12--12-11-11--9--7------|
C|----------------------------------------------------------------------------------------------(x2)|
G|-7-7-----7--7--7-----7--9--9----9--9--9---9--5--5-----5--5--5--5--5---10--10--10--9--9--7--5------|
C|--------------------------------------------------------------------------------------------------|

guiatr 2
D|---------------------------------------------------------------------------|
A|---------------------------------------------------------------------------|
F|-5-5---5-5-5---5-7-7---7-7-7---7-4-4---4-4-4--4-5--5-5-5-5-5-5-5-----------|
C|-5-5---5-5-5---5-7-7---7-7-7---7-4-4---4-4-4--4-5--5-5-5-5-5-5-5-----(x2)--|
G|-3-3---3-3-3---3-5-5---5-5-5---5-2-2---2-2-2--2-3--3-3-3-3-3-3-3-----------|
C|---------------------------------------------------------------------------|

*Verse*

guitar 1 - entire verse
D|---------------------------------------------------------------------------|
A|--8---8---8---8---8---8---8---8---10---10---10---10---7---7---7---7--------|
F|----7---7---7---7---7---7---7---7----7----7----7----7---7---7---7---7------|
C|---------------------------------------------------------------------------|
G|---------------------------------------------------------------------------|
C|---------------------------------------------------------------------------|

Guitar 2 - entire verse
pm . .   .   . . . . .   .   . . . . .   .   . . . . .   .   . . .
D|---------------------------------------------------------------------------|
A|-----0---------------0-----------------------------------------------------|
F|---------2---------------0-----------0---0-----------0---0-----------------|
C|---0---0---0---0---0---0---0---0---0---0---0---0---0---0---0---0-----------|
G|-3-----------3---5-----------5---2-----------2---3-----------3-------------|
C|---------------------------------------------------------------------------|

*Chorus*
"Sitting in this room...."[1st time]
GUITARS 1&2
D|---------------------------------------------------------------------------|
A|---------------------------------------------------------------------------|
F|---------------------------------------------------------------------------|
C|---5~---------------0~----------------9~---------------10~-----------------|
G|---5~---------------0~----------------9~---------------10~-----------------|
C|---5~---------------0~----------------9~---------------10~-----------------|

"Sitting in this room...."[2nd time]
GUITARS 1&2
D|-----------------------------------------------------------------------|
A|-----------------------------------------------------------------------|
F|-----------------------------------------------------------------------|
C|---5---5---5---5----5----5----5----5---0----0---0---0---0---0---0--0---|
G|---5---5---5---5----5----5----5----5---0----0---0---0---0---0---0--0---|
C|---5---5---5---5----5----5----5----5---0----0---0---0---0---0---0--0---|

D|-----------------------------------------------------------------------------|
A|-----------------------------------------------------------------------------|
F|-----------------------------------------------------------------------------|
C|---9---9---9---9----9----9----9----9---10---10---10---10--10---10---10--10---|
G|---9---9---9---9----9----9----9----9---10---10---10---10--10---10---10--10---|
C|---9---9---9---9----9----9----9----9---10---10---10---10--10---10---10--10---|

"FORGET..."
guitar 1
D|--------------------------------------------------------------------------------------------------|
A|--------------------------------------------------------------------------------------------------|
F|-9-9-----9--9--9-----9--11-11--11-11-11--11--7--7-----7--7--7--7--7---12--12--12-11-11--9--7------|
C|--------------------------------------------------------------------------------------------------|
G|-7-7-----7--7--7-----7--9--9----9--9--9---9--5--5-----5--5--5--5--5---10--10--10--9--9--7--5------|
C|--------------------------------------------------------------------------------------------------|

guiatr 2
D|---------------------------------------------------------------------------|
A|---------------------------------------------------------------------------|
F|-5-5---5-5-5---5-7-7---7-7-7---7-4-4---4-4-4--4-5--5-5-5-5-5-5-5-----------|
C|-5-5---5-5-5---5-7-7---7-7-7---7-4-4---4-4-4--4-5--5-5-5-5-5-5-5-----------|
G|-3-3---3-3-3---3-5-5---5-5-5---5-2-2---2-2-2--2-3--3-3-3-3-3-3-3-----------|
C|---------------------------------------------------------------------------|
guitar 1
D|-----------------------------------------------------------------------|
A|-----------------------------------------------------------------------|
F|-9-9-----9--9--9-----9--11-11--11-11-11--11----------------------------|
C|----------------------------------------------9----7----5----0~--------|
G|-7-7-----7--7--7-----7--9--9----9--9--9---9---9----7----5----0~--------|
C|----------------------------------------------9----7----5----0~--------|

guiatr 2
D|----------------------------------------------------|
A|----------------------------------------------------|
F|-5-5---5-5-5---5-7-7---7-7-7---7--------------------|
C|-5-5---5-5-5---5-7-7---7-7-7---7--9---7---5---0~----|
G|-3-3---3-3-3---3-5-5---5-5-5---5--9---7---5---0~----|
C|----------------------------------9---7---5---0~----|

*Verse*

*Chorus*

*breakdown*
guitar 1
D|--------------------------------------------------------|
A|--8--8--8--8--8--8--8--8--7--7--7--7--7---7-------------|
F|----7--7--7--7--7--7--7--7--7--7--7--7--7---7---REST*---|
C|--------------------------------------------------------|(4x)
G|--------------------------------------------------------|
C|--------------------------------------------------------|

guitar 2
D|-----------------------------------|
A|-----------------------------------|
F|-----------------------------------|
C|-5-5-5-5-7-7-7-7-9-9-9-9-9-9-9-----|(4x)
G|-5-5-5-5-7-7-7-7-9-9-9-9-9-9-9-9*--|
C|-5-5-5-5-7-7-7-7-9-9-9-9-9-9-9-----|

*Bridge(clean)*
guitar 1
D|--------------------------------------------------------------------------------------------------|
A|--------------------------------------------------------------------------------------------------|
F|-9-9-----9--9--9-----9--11-11--11-11-11--11--7--7-----7--7--7--7--7---12--12--12-11-11--9--7------|
C|--------------------------------------------------------------------------------------------------|
G|-7-7-----7--7--7-----7--9--9----9--9--9---9--5--5-----5--5--5--5--5---10--10--10--9--9--7--5------|
C|--------------------------------------------------------------------------------------------------|

D|---------------------------------------------------------------------------|
A|---------------------------------------------------------------------------|
F|-9-9-----9--9--9-----9--11-11--11-11-11--11--7--7-----7--7--7--7--12~------|
C|---------------------------------------------------------------------------|
G|-7-7-----7--7--7-----7--9--9----9--9--9---9--5--5-----5--5--5--5--10~------|
C|---------------------------------------------------------------------------|

guitar 2
D|---------------------------------------------------------------------------|
A|-----0---------------0-----------------------------------------------------|
F|--------2---------------0-----------0---0-----------0---0------------------|
C|---0---0---0---0---0---0---0---0---0---0---0---0---0---0---0---0-----------|
G|-3-----------3---5-----------5---2-----------2---3-----------3-------------|
C|---------------------------------------------------------------------------|
pm . . . . . . . . . . . . . . . . . . . . . . . . . . . . . . . .

D|--------------------------------------------------------|
A|-----0---------------0----------------------------------|
F|---------2---------------0-----------0---0------9~------|
C|---0---0---0---0---0---0---0---0---0---0---0------------|
G|-3-----------3---5-----------5---2-----------2--7~------|
C|--------------------------------------------------------|
pm . . . . . . . . . . . . . . . . . . . . . . .

*outro chorus*

"Sitting in this room"
guitar 1
D|----------------------------------------------------------------------------------------------------|
A|----------------------------------------------------------------------------------------------------|
F|-9-9-----9--9--9-----9--11-11--11-11-11--11--7--7-----7--7--7--7--7---12--12--12-11-11--9--7--------|
C|-----------------------------------------------------------------------------------------------(2x)-|
G|-7-7-----7--7--7-----7--9--9----9--9--9---9--5--5-----5--5--5--5--5---10--10--10--9--9--7--5--------|
C|----------------------------------------------------------------------------------------------------|

guiatr 2
D|---------------------------------------------------------------------------|
A|---------------------------------------------------------------------------|
F|-5-5---5-5-5---5-7-7---7-7-7---7-4-4---4-4-4--4-5--5-5-5-5-5-5-5-----------|
C|-5-5---5-5-5---5-7-7---7-7-7---7-4-4---4-4-4--4-5--5-5-5-5-5-5-5-----(2x)--|
G|-3-3---3-3-3---3-5-5---5-5-5---5-2-2---2-2-2--2-3--3-3-3-3-3-3-3-----------|
C|---------------------------------------------------------------------------|

"Sitting in this room"
guitar 1
D|--------------------------------------------------------------------------------------------------|
A|--------------------------------------------------------------------------------------------------|
F|-9-9-----9--9--9-----9--11-11--11-11-11--11--7--7-----7--7--7--7--7---12--12--12-11-11--9--7------|
C|---------------------------------------------------------------------------------------------(3x)-|
G|-7-7-----7--7--7-----7--9--9----9--9--9---9--5--5-----5--5--5--5--5---10--10--10--9--9--7--5------|
C|--------------------------------------------------------------------------------------------------|

guiatr 2
D|---------------------------------------------------------------------------|
A|---------------------------------------------------------------------------|
F|-5-5---5-5-5---5-7-7---7-7-7---7-4-4---4-4-4--4-5--5-5-5-5-5-5-5-----------|
C|-5-5---5-5-5---5-7-7---7-7-7---7-4-4---4-4-4--4-5--5-5-5-5-5-5-5------(3x)-|
G|-3-3---3-3-3---3-5-5---5-5-5---5-2-2---2-2-2--2-3--3-3-3-3-3-3-3-----------|
C|---------------------------------------------------------------------------|

Guitar 3
D|---------------------------------------------------------------------------|
A|--8---8---8---8---8---8---8---8---10---10---10---10---7---7---7---7--------|
F|----7---7---7---7---7---7---7---7----7----7----7----7---7---7---7---7------|
C|---------------------------------------------------------------------(3x)--|
G|---------------------------------------------------------------------------|
C|---------------------------------------------------------------------------|

guitar 1
D|-----------------------------------------------------------------------|
A|-----------------------------------------------------------------------|
F|-9-9-----9--9--9-----9--11-11--11-11-11--11----------------------------|
C|----------------------------------------------9----7----5----0~--------|
G|-7-7-----7--7--7-----7--9--9----9--9--9---9---9----7----5----0~--------|
C|----------------------------------------------9----7----5----0~--------|

guiatr 2
D|----------------------------------------------------|
A|----------------------------------------------------|
F|-5-5---5-5-5---5-7-7---7-7-7---7--------------------|
C|-5-5---5-5-5---5-7-7---7-7-7---7--9---7---5---0~----|
G|-3-3---3-3-3---3-5-5---5-5-5---5--9---7---5---0~----|
C|----------------------------------9---7---5---0~----|


Guitar 3
D|------------------------------------------|
A|--8---8---8---8---8---8---8---8---10~-----|
F|----7---7---7---7---7---7---7---7---------|
C|------------------------------------------|
G|------------------------------------------|
C|------------------------------------------|

            
            
Suggest correction
Creating personal tab
Creating personal tab
You can edit any tab online and save it as your Personal.

You can edit, replace or remove any tab part or add personal notes – all changes will be seen only by you.

Personal tabs can be accessed anytime from any device, even offline.
Learn more »
Give kudos to tab author, rate the tab!
1 2 3 4 5
comments
print report bad tab
guest
You may want to rate the tab now too:
select rating
Wanna post a correction for this tab? Suggest correction