Oops, an error
Loading. Please wait.

On To The Next One bass

version 3
version 3

Whole song

Interactive

1,707 views 3 this week
2 commentsread comments
1 2 3 4 5
1 last vote to show rating
add to favorites
×
Save as Personal and add changes to this tab that will be seen only by you. Learn more ›
×
You can save this tab as Personal to edit and correct it or add notes. All changes will be seen only by you. Learn more »
launch autoscroll
font size
0
reset
guitar tuner
edit
Autoscroll
slow
fast
+/-
esc
set tempo
stop
On To the Next One
Escape the Fate
Drop C
Tabbed by: Synysterblack

X= Palm Mute

-Intro-
F|-----------------------|
C|-----------------------|
G|-----------------------|
C|-12-12---15-15-15h14---|

F|-----------------------------------------|
C|-----------------------------------------|
G|-----------------------------------------|
C|-12-12-0--15-15-15h14---12-12-0--15-15---|

-Verse-
F|------------------------------------------------|
C|------------------------------------------------|
G|-------0----------------------0-----------------|
C|-0-0-03-2--3-3-3h2-232--0-0-03-2--3-3-3h2-232---|

F|--------------------------------------------|
C|--------------------------------------------|
G|-------0----------------------0-------------|
C|-0-0-03-2--3-3-3h2-232--0-0-03-2--3-3-3h2---|

-Pre-chorus-
F|-------------------------------|
C|-------------------------------|
G|--------------------77-7-810---|
C|-8-8-8--810-10-10-10-----------|

-Chorus-
F|----------------------------------------------------------------------------------|
C|----------------------------------------------------------------------------------|
G|-------------------3~3333333344-4~5~7~5~55555555555555555-4~44444444444-44-4-44---|
C|-3~3333333333333333---------------------------------------------------------------|

F|----------------------------------------------------------------------------------|
C|----------------------------------------------------------------------------------|
G|-------------------3~3333333344-4~5~7~5~55555555555555555-4~44444444444-44-4-44---|
C|-3~3333333333333333---------------------------------------------------------------|

-Intro 2-
F|-------------------|
C|-------------------|
G|-------------------|
C|-0-0-0-0-3-3-3h2---|

-Verse 2-
F|-------2------2------2-----------------------------|
C|----5-3----5-3----5-3------------------------------|
G|-5~-----4~-----3~-----2~---------------------------|
C|---------------------------0-0-0--3-3-3h2--0-0-0---|

-Pre-chorus 2-
F|-------------------------------|
C|-------------------------------|
G|--------------------77-7-810---|
C|-8-8-8--810-10-10-10-----------|

-Chorus 2-
F|----------------------------------------------------------------------------------|
C|----------------------------------------------------------------------------------|
G|-------------------3~3333333344-4~5~7~5~55555555555555555-4~44444444444-44-4-44---|
C|-3~3333333333333333---------------------------------------------------------------|

F|----------------------------------------------------------------------------------|
C|----------------------------------------------------------------------------------|
G|-------------------3~3333333344-4~5~7~5~55555555555555555-4~44444444444-44-4-44---|
C|-3~3333333333333333---------------------------------------------------------------|

F|----------------------------------------|
C|----------------------------------------|
G|-/1616161616161616161616-1616-16-1616---|
C|----------------------------------------|

-Solo-
F|-----------------------------------|
C|-----------------------------------|
G|-5-5-5-5-5-55-55-8-8-8-8-7-77-77---|x4
C|-----------------------------------|
   x x x x x xx xx x x x x x xx xx

-Bridge1
F|----------------------------------------|
C|----------------------------------------|
G|----------------------------------------|
C|-8-8-8-8-8-8-8-8-10-10-10-10-10-10-10---|

F|-----------------------------------------------------------|
C|--------------------------------------------------101010---|
G|-1212121212121212-1010101010101010-888101010121212---------|
C|-----------------------------------------------------------|

-Pre-chorus 3-
F|--------------------------------------|
C|--------------------------------10\---|
G|--------------------77-7-810-8\-------|
C|-8-8-8--810-10-10-10------------------|

-Chorus 3-
F|--------------------------------------------|
C|--------------------------------------------|
G|-5~5555555555555555-4~44444444444-44-4-44---|
C|--------------------------------------------|

F|----------------------------------------------------------------------------------|
C|----------------------------------------------------------------------------------|
G|-------------------3~3333333344-4~5~7~5~55555555555555555-4~44444444444-44-4-44---|
C|-3~3333333333333333---------------------------------------------------------------|

F|----------------------------------------------------------------------------------|
C|----------------------------------------------------------------------------------|
G|-------------------3~3333333344-4~5~7~5~55555555555555555-4~44444444444-44-4-44---|
C|-3~3333333333333333---------------------------------------------------------------|

F|----------------------------------------------------------------------------------|
C|----------------------------------------------------------------------------------|
G|-------------------3~3333333344-4~5~7~5~55555555555555555-4~44444444444-44-4-44---|
C|-3~3333333333333333---------------------------------------------------------------|

F|--------------------|
C|--------------------|
G|--------44-4~5~7~---|
C|-8\--8\-------------|

-End-
F|------------------------------------------------------|
C|------------------------------------------------------|
G|------------------------------------------------------|
C|-12-12-0--15-15-15h14--12-12-0--15-15-14--14-15-12\---|

            
            
Suggest correction
Creating personal tab
Creating personal tab
You can edit any tab online and save it as your Personal.

You can edit, replace or remove any tab part or add personal notes – all changes will be seen only by you.

Personal tabs can be accessed anytime from any device, even offline.
Learn more »
Give kudos to tab author, rate the tab!
1 2 3 4 5
comments
print report bad tab
2 comments total.
+1 reply
effexor1996 72 Aug 11, 2010 07:58 PM

uhm, how do you hammer on 14 to 14? that would be a pull off or a pull of than a hammer on...

0 reply
synysterblack 528 Aug 11, 2010 08:00 PM

lol good point i idnt realize that

guest
You may want to rate the tab now too:
select rating
Wanna post a correction for this tab? Suggest correction