Oops, an error
Loading. Please wait.

On To The Next One tab

version 1
version 1

Whole song

Interactive

32,585 views 1 this week
4 commentsread comments
1 2 3 4 5
x 8
add to favorites
×
Save as Personal and add changes to this tab that will be seen only by you. Learn more ›
×
You can save this tab as Personal to edit and correct it or add notes. All changes will be seen only by you. Learn more »
launch autoscroll
font size
0
reset
how to read this tab
guitar tuner
edit
Autoscroll
slow
fast
+/-
esc
set tempo
stop
Author
 Song: On To The Next One
 Artist: Escape The Fate
 Album: This War Is Ours (2008)
 Tabbed by: Josh zantetsword@gmail.com
 Tuning: Drop C ( C G C F A D )

This song is super sick. I can't figure out the solo perfect, but that's
mostly because of all the pinch harmonics and effects throw me off. What I
have is pretty close, and this is what I'm gonna be playing if I play this
for a show any time soon.

Note I'm tabbing the rhythm track first and then the Lead later. Scroll down
for lead.

 *     Palm Mute
 \     Slide Down
 /     Slide Up
 h     Hammer-On
 p     Pull-Off
 "     Pinch Harmonic
 \
  >?   Repeat indicated section
 /     ? amount of times.
 x     Mute String

-Intro/Riff-

D |-----------------------------------------------------|
A |-----------------------------------------------------|
F |-----------------------------------------------------|
C |-----------------------------------------------------|
G |---5-----5--5h7---4----4p0----5-----5--------4----7--|
C |0-----0---------0----0-----3-----3-----3p2-0----0----|
                   *    *                     *    *

Play that a few times, then this...

D |--------------------------------------------------------|
A |---------------------------------------6p5---5--6p5-----|
F |------------------------------------7------6---------7--|
C |---------------------------------3----------------------|
G |---5-----5--5h7---4----4p0----5-------------------------|
C |0-----0---------0----0-----3----------------------------|
                   *    *                     *

The first verse is all just the main riff played all palm muted.

-Pre Chorus/Chorus Rhythm-

D |-------------------------------------------|
A |-------------------------------------------|
F |-------------x-3--5--5--5--5--5-6--6--6-9--|
C |8\--8\--8\---x-3--5--5--5--5--5-6--6--6-9--|
G |8\--8\--8\---x-1--3--3--3--3--3-4--4--4-7--|
C |8\--8\--8\---x-----------------------------|


D |-------------------1------------------------|
A |6--------6-6--6--6-1--5--------5-5--5--5-8--|
F |5--------5-5--5--5-3--5--------5-6--6--6-9--|
C |3--------3-3--3--3-3--5--------5-5--5--5-9--|
G |3--------3-3--3--3-1--3--------3-4--4--4-7--|
C |3--------3-3--3--3--------------------------|\
                                                  >x2
D |--------------------------------------------|/
A |6--------6-6--6--6-6--6--------6-6--6--6-6--|
F |7--------7-7--7--7-7--6--------6-6--6--6-6--|
C |7--------7-7--7--7-7--6--------6-6--6--6-6--|
G |5--------5-5--5--5-5--4--------4-4--4--4-4--|
C |--------------------------------------------|

Goes back into the main riff, then...

-Verse 2-

Clean part

D |--------------------------------------|
A |------6--5---------------6--8---------|
F |---7------------------7---------------|
C |7------------------7------------------|
G |--------------------------------------|
C |--------------------------------------|


D |---------5------------------6---------|
A |------6------------------7------------|
F |---7------------------7---------------|
C |7------------------7------------------|
G |--------------------------------------|
C |--------------------------------------|


Distortion

D |----------------------------------|
A |----------------------------------|
F |----------------------------------|
C |0---0---0--------3---3---2--------|
G |0---0---0---0/7--3---3---2---0/7--|
C |0---0---0---0/7--3---3---2---0/7--|
               *                *

D |----------------------------------|
A |----------------------------------|
F |----------------------------------|
C |0---0---0-------------------------|
G |0---0---0---0/7-------------------|
C |0---0---0---0/7-------------------|
               *

 
Play the Pre-Chorus/Chorus again, and hold on the last chord for one more
repeat. The solo is just the main riff palm muted over and over.


-Bridge-

D |--------------------------------------------------------|
A |--------------------------------------------------------|
F |--------------------------------------------------------|
C |8--8--8--8--8--8--8--8--10--10--10--10--10--10--10--10--|
G |8--8--8--8--8--8--8--8--10--10--10--10--10--10--10--10--|
C |8--8--8--8--8--8--8--8--10--10--10--10--10--10--10--10--|


D |-------------------------------------------------|
A |-------------------------------------------------|
F |10-10-10-10--9--9--9--9--7--7--7--7--5--5--5--5--|
C |10-10-10-10--9--9--9--9--7--7--7--7--5--5--5--5--|
G |8--8--8--8---7--7--7--7--5--5--5--5--3--3--3--3--|
C |-------------------------------------------------|


Pre-Chorus again.

-Final Chorus-

There's only one difference in the final chorus, it's right at the beginning
and you can't miss it.

D |----------------------------|
A |----------------------------|
F |----------------------------|
C |3\---------10\--------------|
G |3\---------10\--------/13\--|
C |3\---------10\--------/13\--|


D |--------------------------------------------|
A |6--------6-6--6--6-6--6--------6-6--6--6-6--|
F |7--------7-7--7--7-7--6--------6-6--6--6-6--|
C |7--------7-7--7--7-7--6--------6-6--6--6-6--|
G |5--------5-5--5--5-5--4--------4-4--4--4-4--|
C |--------------------------------------------|

Then reapeat the normal chorus pattern 3 times, hang on the last chord
again, and into the outro.

-Outro-

D |-----------------------------------------------------|
A |-----------------------------------------------------|
F |-----------------------------------------------------|
C |-----------------------------------------------------|
G |---5-----5--5h7---4----4p0----5-----5--------4----7--|
C |0-----0---------0----0-----3-----3-----3p2-0----0----|
                   *    *                     *    *

D |-------------------------------------------------|
A |-------------------------------------------------|
F |-------------------------------------------------|
C |---------------------------------------------7\--|
G |---5-----5--5h7---4----4p0-3---3---2----3-2--5\--|
C |0-----0---------0----0-----3---3---2----3-2------|
                   *    *     *   *   *    * *

Okay now that I'm done with that we can move to the lead lines. Oh and Monte
is epic.


The intro and 1st verse are the same to both guitars, except there are a
couple parts where Monte plays his alone.

Anyways, the first place with something distinctly different.

-Pre Chorus/Chorus-

D |-------------x-6--8--8--8--8--8-9--9--9-9--|
A |-------------x-x--x--x--x--x--x-x--x--x-x--|
F |-------------x-3--5--5--5--5--5-6--6--6-6--|
C |8\--8\--8\---------------------------------|
G |8\--8\--8\---------------------------------|
C |8\--8\--8\---------------------------------|

The first time through the chorus is the same, but at the repeat it's
something like this...


D |-----------------------------------------------|
A |10-----10-11--10--11-10--8---------------------|
F |10-----10-10--10--10-10--9------12b14r12-9/12--|
C |10-----------------------10--------------------|
G |-----------------------------------------------|
C |-----------------------------------------------|


D |---------------------------------------------------------|
A |----------------------------------------11-11--10--8/10--|
F |10---------12p10--9--10h12p10-9--------------------------|
C |----12---------------------------10----------------------|
G |---------------------------------------------------------|
C |---------------------------------------------------------|

Back to the main riff, sit quiet in Verse 2 til the end of the clean part,
then this little line.

D |--------------------------------------------|
A |---------13h14h16----------13h14h16-16'~~~~~|
F |12h14h15----------12h14h15------------------|
C |--------------------------------------------|
G |--------------------------------------------|
C |--------------------------------------------|

Main riff palm muted and REALLY quiet. Drop out and rest with the rhythm.

D |---------------------------|
A |----------11-11--10--8/10--|
F |9--------------------------|
C |---10----------------------|
G |---------------------------|
C |---------------------------|


-Solo-

Bunch of crazy effects and pinch harmonics everywhere, this is as close as I
can get.

D |-----------------------------------------|
A |-----------------------------------------|
F |7--------8--7-----3h5p3-6--5-------------|
C |------5-----------------------8p5--------|
G |-----------------------------------5-----|
C |-----------------------------------------|

D |---------------------------------|
A |---------------------------------|
F |7\--/10\--------10-12-10-12/14---|
C |----------10h12------------------|
G |---------------------------------|
C |---------------------------------|

D |-----------------------------13-15---|
A |--------------------13h14h16---------|
F |10\--/12\--12h13h15------------------|
C |-------------------------------------|
G |-------------------------------------|
C |-------------------------------------|

D |17---15----------------------------------------------------|
A |--------18-15----17\----------------------------------14---|
F |------------------------7/10--10----10-12-14p12p10-12------|
C |---------------------------------12------------------------|
G |-----------------------------------------------------------|
C |-----------------------------------------------------------|

D |---------------------------------------------13h15h17----------15h17h18-|
A |---------------------------11h13h15-13h15h17----------15h17h18----------|
F |---------10h12h14-12h14h15----------------------------------------------|
C |10h12h14----------------------------------------------------------------|
G |------------------------------------------------------------------------|
C |------------------------------------------------------------------------|

D |20p19p18-20p19p18-20p19p18-20-20"b22--------|
A |--------------------------------pinch-------|
F |---------------------------------and--------|
C |----------------------------------bend------|
G |--------------------------------------------|
C |--------------------------------------------|

Not perfect but I tried.

-Bridge-

D |--------------------------------------------------------|
A |--------------------------------------------------------|
F |--------------------------------------------------------|
C |8--8--8--8--8--8--8--8--10--10--10--10--10--10--10--10--|
G |8--8--8--8--8--8--8--8--10--10--10--10--10--10--10--10--|
C |8--8--8--8--8--8--8--8--10--10--10--10--10--10--10--10--|


D |----------------------------------------------------|
A |----------------------------------------------------|
F |-------7h9h10--------7h9h10-------5h7h9-------5h7h9-|
C |7h9h10--------7h9h10--------5h7h9-------5h7h9-------|
G |----------------------------------------------------|
C |----------------------------------------------------|

D |------------------------|
A |------------------------|
F |7----9----10-----14"----|
C |x----x----x-------------|
G |5----7----8-------------|
C |------------------------|

Pre-Chorus again, same as the other ones.

-Final Chorus-

D |------------------------|
A |------------13\---------|
F |10\---------------------|
C |------------------------|
G |------------------------|
C |------------------------|

D |---------------------------------------------------------|
A |----------------------------------------11-11--10--8/10--|
F |10---------12p10--9--10h12p10-9--------------------------|
C |----12---------------------------10----------------------|
G |---------------------------------------------------------|
C |---------------------------------------------------------|

Then the same stuff as the leads from the other chorus, the outro is also
the same on both guitars.

Go ahead and comment and rate away to your hearts content.

            
            
Suggest correction
Creating personal tab
Creating personal tab
You can edit any tab online and save it as your Personal.

You can edit, replace or remove any tab part or add personal notes – all changes will be seen only by you.

Personal tabs can be accessed anytime from any device, even offline.
Learn more »
comments
print report bad tab
4 comments total. Showing first comments. show 1 bad comment
+3 reply
Zantet 297 Jun 30, 2009 08:00 PM

I guitarIST, they can record as many tracks as they want. The song still has multiple guitar tracks.

+2 reply
BarbyLoveHewitt 73 Jul 22, 2009 09:29 PM

lol warrz you don't know crap about making music.

guest
You may want to rate the tab now too:
select rating
Wanna post a correction for this tab? Suggest correction