Oops, an error
Loading. Please wait.

Prepare Your Weapon bass

version 2
version 2

Whole song

Interactive

55 views 3 this week
no commentswrite comment
1 2 3 4 5
2 more votes to show rating
add to favorites
×
Save as Personal and add changes to this tab that will be seen only by you. Learn more ›
×
You can save this tab as Personal to edit and correct it or add notes. All changes will be seen only by you. Learn more »
launch autoscroll
font size
0
reset
guitar tuner
edit
Autoscroll
slow
fast
+/-
esc
set tempo
stop


0:10
E |-----------------------------------------------------------------|
B |-----------------------------------------------------------------|
F#|-----------------------------------------------------------------|
B |-5---------------------------------------------------------------|
    1 + 2 + 3 + 4 + 1 + 2 + 3 + 4 + 1 + 2 + 3 + 4 + 1 + 2 + 3 + 4 + 

E |-----------------------------------------------------------------|
B |-----------------------------------------------------------------|
F#|-----------------------------------------------------------------|
B |-1-------------------------------0---------------/---/---/---/---|
    1 + 2 + 3 + 4 + 1 + 2 + 3 + 4 + 1 + 2 + 3 + 4 + 1 + 2 + 3 + 4 + 

0:20
E |-----------------------------------------------------------------|
B |-----------------------------------------------------------------|
F#|-----------------------------------------------------------------|
B |-5---555-555-5-5-5-5-5-5-555-5-5-5-5-555-555-5-5-5-5-5-5-555-5-1-|
    1 + 2 + 3 + 4 + 1 + 2 + 3 + 4 + 1 + 2 + 3 + 4 + 1 + 2 + 3 + 4 + 

E |-----------------------------------------------------------------|
B |-----------------------------------------------------------------|
F#|---------------------------------------------------------------5-|
B |-----111-111-1-1-1-1-1-1-111-1-0-----0000000000000---------------|
    1 + 2 + 3 + 4 + 1 + 2 + 3 + 4 + 1 + 2 + 3 + 4 + 1 + 2 + 3 + 4 + 

0:31
E |-----------------------------------------------------------------|
B |-----------------------------------------------------------------|
F#|-----------------------------------------------------------------|
B |---5-555-555-5-5-5-5-5-5-555-5-5-5-5-555-555-5-5-5-5-5-5-555-5-1-|
    1 + 2 + 3 + 4 + 1 + 2 + 3 + 4 + 1 + 2 + 3 + 4 + 1 + 2 + 3 + 4 + 

E |-----------------------------------------------------------------|
B |-----------------------------------------------------------------|
F#|---------------------------------------------------1-0---1-0-----|
B |-----111-111-1-1-1-1-1-1-111-1-0-----000-000-0-0-0-----------3-5-|
    1 + 2 + 3 + 4 + 1 + 2 + 3 + 4 + 1 + 2 + 3 + 4 + 1 + 2 + 3 + 4 + 

Verse 0:41
E |-----------------------------------------------------------------|
B |-----------------------------------------------------------------|
F#|-----------------------------------------------------------------|
B |-----555-555-----------5-555---------555-555-----------5-555-----|
    1 + 2 + 3 + 4 + 1 + 2 + 3 + 4 + 1 + 2 + 3 + 4 + 1 + 2 + 3 + 4 + 

E |-----------------------------------------------------------------|
B |-----------------------------------------------------------------|
F#|-----------------------------------------------------------------|
B |-----111-111-----------1-111---------000-000-----000-000-000-0---|
    1 + 2 + 3 + 4 + 1 + 2 + 3 + 4 + 1 + 2 + 3 + 4 + 1 + 2 + 3 + 4 + 

E |-----------------------------------------------------------------|
B |-----------------------------------------------------------------|
F#|-----------------------------------------------------------------|
B |-----555-555-----------5-555---------555-555-----------5-555-----|
    1 + 2 + 3 + 4 + 1 + 2 + 3 + 4 + 1 + 2 + 3 + 4 + 1 + 2 + 3 + 4 + 

E |-----------------------------------------------------------------|
B |-----------------------------------------------------------------|
F#|-----------------------------------------------------------------|
B |-----111-111-----------1-111---------000-000-----000-000-000-0-1-|
    1 + 2 + 3 + 4 + 1 + 2 + 3 + 4 + 1 + 2 + 3 + 4 + 1 + 2 + 3 + 4 + 

Pre Chorus 1:03
E |-----------------------------------------------------------------|
B |-----------------------------------------------------------------|
F#|-----------------------------------------------------------------|
B |---1-1-111-1-1-111-1-1-1-1-3---1---1-1-111-1-1-111-1-1-1-1-3---3-|
    1 + 2 + 3 + 4 + 1 + 2 + 3 + 4 + 1 + 2 + 3 + 4 + 1 + 2 + 3 + 4 + 

E |-----------------------------------------------------------------|
B |-----------------------------------------------------------------|
F#|-----------------------------------------------------------------|
B |---5-555-555-----------5-555---3---5-555-555-----------5-555---1-|
    1 + 2 + 3 + 4 + 1 + 2 + 3 + 4 + 1 + 2 + 3 + 4 + 1 + 2 + 3 + 4 + 

E |-----------------------------------------------------------------|
B |-----------------------------------------------------------------|
F#|-----------------------------------------------------------------|
B |---1-1-111-1-1-111-1-1-1-1-3---1---1-1-111-1-1-111-1-1-1-1-3---3-|
    1 + 2 + 3 + 4 + 1 + 2 + 3 + 4 + 1 + 2 + 3 + 4 + 1 + 2 + 3 + 4 + 

E |-----------------------------------------------------------------|
B |-----------------------------------------------------------------|
F#|-----------------------------------------------------------------|
B |---5-555-555-----------5-555---3---5-555-555-------------------5-|
    1 + 2 + 3 + 4 + 1 + 2 + 3 + 4 + 1 + 2 + 3 + 4 + 1 + 2 + 3 + 4 + 

Chorus 1:25
E |-----------------------------------------------------------------|
B |-----------------------------------------------------------------|
F#|-------------------------------5-----5---5---5-5-5---5---5-5-5-3-|
B |-----5---5---5-5-5---5---5-5-5-----------------------------------|
    1 + 2 + 3 + 4 + 1 + 2 + 3 + 4 + 1 + 2 + 3 + 4 + 1 + 2 + 3 + 4 + 

E |-------------------------------------------------------------------|
B |-------------------------------------------------------------------|
F#|---3-3-------3-----3-3---3---3-5---5-5---5---5-----5-5---5-5-5-10\-|
B |-------------------------------------------------------------------|
    1 + 2 + 3 + 4 + 1 + 2 + 3 + 4 + 1 + 2 + 3 + 4 + 1 + 2 + 3 + 4 + 

E |-----------------------------------------------------------------|
B |-----------------------------------------------------------------|
F#|-------------------------------5-----5---5---5-5-5---5---5-5-5-3-|
B |-----5---5-5-5---5---5---5-5-5-----------------------------------|
    1 + 2 + 3 + 4 + 1 + 2 + 3 + 4 + 1 + 2 + 3 + 4 + 1 + 2 + 3 + 4 + 

E |------------------------------------------------------------------|
B |------------------------------------------------------------------|
F#|---3-3-------3-----3-3---3---3-5---5-5---5---5---5-5-5-5-5-5---5\-|
B |------------------------------------------------------------------|
    1 + 2 + 3 + 4 + 1 + 2 + 3 + 4 + 1 + 2 + 3 + 4 + 1 + 2 + 3 + 4 + 

Verse 1:46
E |-----------------------------------------------------------------|
B |-----------------------------------------------------------------|
F#|-------------------------------6-------------------6-5---3-5---3-|
B |-----555-555-555-5-----------------5-5-555-5-5-5-5---------------|
    1 + 2 + 3 + 4 + 1 + 2 + 3 + 4 + 1 + 2 + 3 + 4 + 1 + 2 + 3 + 4 + 

E |-----------------------------------------------------------------|
B |-----------------------------------------------------------------|
F#|---1---------------3-1---1-3-1-1---0---------------1-0---1-0---5-|
B |-----111-111-1-1-1-------------------000-000-0-0-0-----------3---|
    1 + 2 + 3 + 4 + 1 + 2 + 3 + 4 + 1 + 2 + 3 + 4 + 1 + 2 + 3 + 4 + 

E |-----------------------------------------------------------------|
B |-----------------------------------------------------------------|
F#|-----------------------------------------------------------------|
B |-----555-555-----------5-555---------5555555-----------5-555-----|
    1 + 2 + 3 + 4 + 1 + 2 + 3 + 4 + 1 + 2 + 3 + 4 + 1 + 2 + 3 + 4 + 

E |-----------------------------------------------------------------|
B |-----------------------------------------------------------------|
F#|-----------------------------------------------------------------|
B |-----111-111-----------1-111---------000-000-----000-000-000-0-1-|
    1 + 2 + 3 + 4 + 1 + 2 + 3 + 4 + 1 + 2 + 3 + 4 + 1 + 2 + 3 + 4 + 

Pre Chorus 2:07 
E |-----------------------------------------------------------------|
B |-----------------------------------------------------------------|
F#|-----------------------------------------------------------------|
B |---1-1-111-1-1-111-1-1-1-1-3---1---1-1-111-1-1-111-1-1-1-1-3---3-|
    1 + 2 + 3 + 4 + 1 + 2 + 3 + 4 + 1 + 2 + 3 + 4 + 1 + 2 + 3 + 4 + 

E |-----------------------------------------------------------------|
B |-----------------------------------------------------------------|
F#|-----------------------------------------------------------------|
B |---5-555-555-----------5-555---3---5-555-555-----------5-555---1-|
    1 + 2 + 3 + 4 + 1 + 2 + 3 + 4 + 1 + 2 + 3 + 4 + 1 + 2 + 3 + 4 + 

E |-----------------------------------------------------------------|
B |-----------------------------------------------------------------|
F#|-----------------------------------------------------------------|
B |---1-1-111-1-1-111-1-1-1-1-3---1---1-1-111-1-1-111-1-1-1-1-3---3-|
    1 + 2 + 3 + 4 + 1 + 2 + 3 + 4 + 1 + 2 + 3 + 4 + 1 + 2 + 3 + 4 + 

E |-----------------------------------------------------------------|
B |-----------------------------------------------------------------|
F#|-----------------------------------------------------------------|
B |---5-555-555-----------5-555---3---5-555-555-------------------5-|
    1 + 2 + 3 + 4 + 1 + 2 + 3 + 4 + 1 + 2 + 3 + 4 + 1 + 2 + 3 + 4 + 

Chorus 2:28
E |-----------------------------------------------------------------|
B |-----------------------------------------------------------------|
F#|-------------------------------5-----5---5---5-5-5---5---5-5-5-3-|
B |-----5---5---5-5-5---5---5-5-5-----------------------------------|
    1 + 2 + 3 + 4 + 1 + 2 + 3 + 4 + 1 + 2 + 3 + 4 + 1 + 2 + 3 + 4 + 

E |-------------------------------------------------------------------|
B |-------------------------------------------------------------------|
F#|---3-3-------3-----3-3---3---3-5---5-5---5---5-----5-5---5-5-5-10\-|
B |-------------------------------------------------------------------|
    1 + 2 + 3 + 4 + 1 + 2 + 3 + 4 + 1 + 2 + 3 + 4 + 1 + 2 + 3 + 4 + 

E |-----------------------------------------------------------------|
B |-----------------------------------------------------------------|
F#|-------------------------------5-----5---5---5-5-5---5---5-5-5-3-|
B |-----5---5-5-5---5---5---5-5-5-----------------------------------|
    1 + 2 + 3 + 4 + 1 + 2 + 3 + 4 + 1 + 2 + 3 + 4 + 1 + 2 + 3 + 4 + 

E |-----------------------------------------------------------------|
B |---------------------------------------------------------------4-|
F#|---3-3-------3-----3-3---3---3-5---5-5---5---5---5-5-5-5-5-5-5---|
B |-----------------------------------------------------------------|
    1 + 2 + 3 + 4 + 1 + 2 + 3 + 4 + 1 + 2 + 3 + 4 + 1 + 2 + 3 + 4 + 

E |-----------------------------------------------------------------|
B |-4-4-4-4-4-4-4-3---3-3-3-3-3-3-3---------------------------------|
F#|-----------------------------------------------------------------|
B |---------------------------------5-------------------------------|
    1 + 2 + 3 + 4 + 1 + 2 + 3 + 4 + 1 + 2 + 3 + 4 + 1 + 2 + 3 + 4 + 

Rest

Solo 3:23
E |--------------------------------------------------------------------|
B |----------------5---------------------------------------------------|
F#|-10-\-\-------------------------3-5-\-----------5-5-r-----------1-3-|
B |------------------5r------------------------------------------------|
    +  1 + 2 + 3 + 4 + 1 + 2 + 3 + 4 + 1 + 2 + 3 + 4 + 1 + 2 + 3 + 4 + 

E |-----------------------------------------------------------------|
B |---------------------------------------------5-------------5-8-5\|
F#|-\-\-----------3-------------3-5-\-------------5---5-8-5-8-------|
B |-------------5---------------------------------------------------|
    1 + 2 + 3 + 4 + 1 + 2 + 3 + 4 + 1 + 2 + 3 + 4 + 1 + 2 + 3 + 4 + 

E |-----------------------------------------------------------------|
B |-\-\---------5---------------------------------------------------|
F#|-----------------------------3-5-\-----------5-5-r-----------1-3-|
B |---------------5r------------------------------------------------|
    1 + 2 + 3 + 4 + 1 + 2 + 3 + 4 + 1 + 2 + 3 + 4 + 1 + 2 + 3 + 4 + 

E |-----------------------------------------------------------0-3---|
B |---------------------------------------------5-----0-3-0-3-----0-|
F#|-\-\-----------3-------------3-5-\-------------5-----------------|
B |-------------5---------------------------------------------------|
    1 + 2 + 3 + 4 + 1 + 2 + 3 + 4 + 1 + 2 + 3 + 4 + 1 + 2 + 3 + 4 + 

3:45
E |------------------------------------------------------------------|
B |o---3---0-3-5-0-5---0---0-3-5-3-0---0---0-3-5-0-3-5-0---0-3-5-----|
F#|o-----3-----------3---3-----------3---3---------------3-------5-6-|
B |------------------------------------------------------------------|
     1 + 2 + 3 + 4 + 1 + 2 + 3 + 4 + 1 + 2 + 3 + 4 + 1 + 2 + 3 + 4 + 

E |-------------------------------------------------2-------3---2----|
B |---5-------5-----5---------5---3---0-3-0-3---0-3-----0-3-------0-o|
F#|-----5-6-8---6-5---6-5-6-6---6-----------------------------------o|x4
B |--------------------------------------------------------------(5)-| (5) play last time
    1 + 2 + 3 + 4 + 1 + 2 + 3 + 4 + 1 + 2 + 3 + 4 + 1 + 2 + 3 + 4 + 
Tabbed by Dave Vucko

            
            
Suggest correction
Creating personal tab
Creating personal tab
You can edit any tab online and save it as your Personal.

You can edit, replace or remove any tab part or add personal notes – all changes will be seen only by you.

Personal tabs can be accessed anytime from any device, even offline.
Learn more »
Give kudos to tab author, rate the tab!
1 2 3 4 5
comments
print report bad tab
guest
You may want to rate the tab now too:
select rating
Wanna post a correction for this tab? Suggest correction