Oops, an error
Loading. Please wait.

Ransom tab

version 2
version 2

Whole song

Interactive

5,656 views 1 this week
1 commentread comment
1 2 3 4 5
1 last vote to show rating
add to favorites
×
Save as Personal and add changes to this tab that will be seen only by you. Learn more ›
×
You can save this tab as Personal to edit and correct it or add notes. All changes will be seen only by you. Learn more »
launch autoscroll
font size
0
reset
how to read this tab
guitar tuner
edit
Autoscroll
slow
fast
+/-
esc
set tempo
stop
Author
Difficulty
TABBED BY: ARVIE TUGAWIN
IF YOU'RE CONFUSED, JUST FOLLOW THE TIME.


GUITAR 1:
INTRO: 00:00-00:21

E-----------|   |-----------|   |-----------|   |-----------|   |-----------|
B------3----|   |------6----|   |------6----|   |------6----|   |------3----|
G--3--------|   |--3--------|   |--3--------|   |--3--------|   |--3--------|
D----5---5--|4x |----5---5--|4x |----3---3--|4x |----0--—0--|2x |----0---0--|2x
A-----------|   |-----------|   |-----------|   |-----------|   |-----------|
D-----------|   |-----------|   |-----------|   |-----------|   |-----------|

E-----------|   |-----------|   |-----------|   |-----------|   |-----|
B------3----|   |------6----|   |------6----|   |------6----|   |-----|
G--3--------|   |--3--------|   |--3--------|   |--3--------|   |--3--|
D----5---5--|4x |----5---5--|4x |----3---3--|4x |----0--—0--|2x |-----|
A-----------|   |-----------|   |-----------|   |-----------|   |-----|
D-----------|   |-----------|   |-----------|   |-----------|   |-----|


VERSE 1: 00:22-00:47
   NOTE: IT’S 1’s
E---------------------------------|
B---------------------------------|
G----------10------8-------7---8--|
D--5-------10------8-------7---8--|
A--5-------8-------6-------5---6--|
D--5------------------------------|

E---------------------------------------------------------------------|
B---------------------------------------------------------------------|
G---------------------------------------------------------------------|
D--55----55----55--33----33----33--11----11----11—-00000000111133335--|
A--55----55----55--33----33----33--11----11----11--00000000111133335--|
D--55----55----55--33----33----33--11----11----11--00000000111133335--|
    P     P     P   P     P     P   P     P     P

CHORUS: 0:48-1:10
   NOTE: IT’S 10’s, 11’s & 13’s.
E—-555555566666655558888101066666655551111111111111111----------------->
B-------------------------------------1111111111111111111111111111111-->
G---------------------------------------------------------------------->
D---------------------------------------------------------------------->
A---------------------------------------------------------------------->
D---------------------------------------------------------------------->

>--13131313131313111111111110101010--|
>------------------------------------|
>------------------------------------|
>------------------------------------|2x
>------------------------------------|
>------------------------------------|


PRE-VERSE: 01:24-01:46
   NOTE: IT’S 12’s, 10’s, 20’s, 18’s, 17’s, 15’s, 19’s, 17’s
E-------------------------------------------------------------->
B-------------------------------------------------------------->
G--1212121212-1212121212-121212122020202020-2020202020-20202020>
D--1212121212-1212121212-121212122020202020-2020202020-20202020>
A--1010101010-1010101010-101010101818181818-1818181818-18181818>
D-------------------------------------------------------------->

>----------------------------------------------------------------|
>----------------------------------------------------------------|
>----------------------------------------------------------------|2x
>1717171717-1717171717-1717171719191919191919192020202020202020--|
>1515151515-1515151515-1515151517171717171717171818181818181818--|
>----------------------------------------------------------------|


VERSE 2: 01:47-02:12
   NOTE: IT’S 1’s
E------------------------------------------------------------------|
B------------------------------------------------------------------|
G------------------------------------------------------------------|
D--55----55----55--33----33----33--11----11----11--00------11—-33--|
A--55----55----55--33----33----33--11----11----11--00------11--33--|
D--55----55----55--33----33----33--11----11----11--00------11--33--|
    P     P     P   P     P     P   P     P     P   P       P   P
E---------------------------------------------------------------------|
B---------------------------------------------------------------------|
G---------------------------------------------------------------------|
D--55----55----55--33----33----33--11----11----11—-0-------1---3---5--|
A--55----55----55--33----33----33--11----11----11--0-------1---3---5--|
D--55----55----55--33----33----33--11----11----11--0-------1---3---5--|
    P     P     P   P     P     P   P     P     P 

CHORUS: 02:12-02:35
   NOTE: IT’S 10’s, 11’s, 13’s
E—-555555566666655558888101066666655551111111111111111----------------->
B-------------------------------------1111111111111111111111111111111-->
G---------------------------------------------------------------------->
D---------------------------------------------------------------------->
A---------------------------------------------------------------------->
D---------------------------------------------------------------------->

>--13131313131313111111111110101010--|
>------------------------------------|
>------------------------------------|
>------------------------------------|
>------------------------------------|
>------------------------------------|

E—-555555566666655558888101066666655551111111111111111----------------->
B-------------------------------------1111111111111111111111111111111-->
G---------------------------------------------------------------------->
D---------------------------------------------------------------------->
A---------------------------------------------------------------------->
D---------------------------------------------------------------------->

>--131313131313131111111111--|
>----------------------------|
>----------------------------|
>----------------------------|
>----------------------------|
>----------------------------|



BRIDGE: 02:35-03:11

E---------|    |-------------|   |---------|
B---------|    |----------6--|   |---------|
G--3\2-2--|    |--3---3------|   |--3\2-2--|
D---------|10x |----5---5----|   |---------|6x
A---------|    |-------------|   |---------|
D---------|    |-------------|   |---------|

E-------------------------------------------------------------|
B--------------------------3----------------------------------|
G--3---3---3---3---3---3-----------3---3---3---3---3---3---2--|
D----5---5---5---5---5---5-----------5---5---5---5---5---5----|4x
A-------------------------------------------------------------|
D-------------------------------------------------------------|


OUTRO: 03:12-END
E------1-----1-----1-----1-------------1-----1-----1-----1/3---1--|   |-----|
B--------3-----3-----3-----3---3---------3-----3-----3------------|   |--3--|
G--3-------3-----3-----3-----3-----3-------3-----3-----3----------|   |-----|
D-----------------------------------------------------------------|4x |-----|
A-----------------------------------------------------------------|   |-----|
D-----------------------------------------------------------------|   |-----|










GUITAR 2:

INTRO: 00:11-00:21

E-------------------|
B-------------------|
G-------------------|
D--xxxxxxxxxxxxxxx--|4x
A--xxxxxxxxxxxxxxx--|
D--xxxxxxxxxxxxxxx--|


VERSE 1: 00:22-00:45
   NOTE: IT’S 1’s, 0’s
E--------------------------------------------------------------------|
B--------------------------------------------------------------------|
G--------------------------------------------------------------------|
D--5555555555555555333333333333333311111111111111110000000011113333--|2x
A--5555555555555555333333333333333311111111111111110000000011113333--|
D--5555555555555555333333333333333311111111111111110000000011113333--|
   ................................................................
|-----|
|-----|
|-----|
|--5--|
|--5--|
|--5--|
   .

CHORUS: 00:48-01:12
   NOTE: IT’S 1’s
E--------------------------------------------------------------------|
B--------------------------------------------------------------------|
G--------------------------------------------------------------------|
D--5555555555555555333333333333333311111111111111113333333333333333--|2x
A--5555555555555555333333333333333311111111111111113333333333333333--|
D--5555555555555555333333333333333311111111111111113333333333333333--|

|-----|
|-----|
|-----|
|--5--|
|--5--|
|--5--|


PRE-VERSE: 01:13-01:47

E--------------------------------------------------------------------|
B--------------------------------------------------------------------|
G------------------88888-88888-888855555-55555-55557777777788888888--|
D--55555-55555-555588888-88888-888855555-55555-55557777777788888888--|3x
A--55555-55555-555566666-66666-666633333-33333-33335555555566666666--|
D--55555-55555-5555--------------------------------------------------|
       P     P    P    P     P         P     P                   

VERSE 2: 01:47-02:09
   NOTE: IT’S 1’s, 0’s
E--------------------------------------------------------------------|
B--------------------------------------------------------------------|
G--------------------------------------------------------------------|
D--5555555555555555333333333333333311111111111111110000000011113333--|2x
A--5555555555555555333333333333333311111111111111110000000011113333--|
D--5555555555555555333333333333333311111111111111110000000011113333--|
   ................................................................
|-----|
|-----|
|-----|
|--5--|
|--5--|
|--5--|
   .

CHORUS: 02:12-02:35
   NOTE: IT’S 1’s
E--------------------------------------------------------------------|
B--------------------------------------------------------------------|
G--------------------------------------------------------------------|
D--5555555555555555333333333333333311111111111111113333333333333333--|2x
A--5555555555555555333333333333333311111111111111113333333333333333--|
D--5555555555555555333333333333333311111111111111113333333333333333--|

|-----|
|-----|
|-----|
|--5--|
|--5--|
|--5--|


BRIDGE: 02:38-03:10
   NOTE: IT’S 1’s
E--------------------------------------------------------------------|
B--------------------------------------------------------------------|
G--------------------------------------------------------------------|
D--5--5--5---------5--5--5---------1--1--1---------1--1--1-----------|
A--5--5--5---------5--5--5---------1--1--1---------1--1--1-----------|
D--5--5--5---------5--5--5---------1--1--1---------1--1--1-----------|
                         P                               P
|-----|
|-----|
|-----|
|--5--|
|--5--|
|--5--|

E------------------------------------------------------------|
B------------------------------------------------------------|
G------------------------------------------------------------|
D--55555555--------55555555--------11111111--------33333333--|
A--55555555--------55555555--------11111111--------33333333--|
D--55555555--------55555555--------11111111--------33333333--|
          P               P               P               P
E--------------------------------------------------------------|
B--------------------------------------------------------------|
G--------------------------------------------------------------|
D--55555555--------55555555----5-3-0-11111111--------33333333--|
A--55555555--------55555555----5-3-0-11111111--------33333333--|
D--55555555--------55555555----5-3-0-11111111--------33333333--|
          P               P    . . .        P               P

OUTRO: 03:12-END
   NOTE: IT’S 1’s
E--------------------------------------------------------------------|
B--------------------------------------------------------------------|
G--------------------------------------------------------------------|
D--5555555555555555555555555555555511111111111111113333333333333333--|
A--5555555555555555555555555555555511111111111111113333333333333333--|
D--5555555555555555555555555555555511111111111111113333333333333333--|

E----------------------------------------------------------------------|
B----------------------------------------------------------------------|
G----------------------------------------------------------------------|
D--555555555555555\3/555555555555555511111111111111113333333333333333--|
A--555555555555555\3/555555555555555511111111111111113333333333333333--|
D--555555555555555\3/555555555555555511111111111111113333333333333333--|

|-----|
|-----|
|-----|
|--5--|
|--5--|
|--5--|


ENJOY!

            
            
Suggest correction
Creating personal tab
Creating personal tab
You can edit any tab online and save it as your Personal.

You can edit, replace or remove any tab part or add personal notes – all changes will be seen only by you.

Personal tabs can be accessed anytime from any device, even offline.
Learn more »
Give kudos to tab author, rate the tab!
1 2 3 4 5
comments
print report bad tab
1 comment total.
0 reply
LucasXavier 10 Nov 10, 2009 12:30 PM

thank you! =D
I was looking for a Drop D version for this song
nice tab

guest
You may want to rate the tab now too:
select rating
Wanna post a correction for this tab? Suggest correction