Oops, an error
Loading. Please wait.
We have an official Situations tab made by UG professional guitarists. Check out the tab »
×
11,415 views 3 this week
1 commentread comment
1 2 3 4 5
1 last vote to show rating
add to favorites
×
Save as Personal and add changes to this tab that will be seen only by you. Learn more ›
×
You can save this tab as Personal to edit and correct it or add notes. All changes will be seen only by you. Learn more »
launch autoscroll
font size
0
reset
guitar tuner
edit
Autoscroll
slow
fast
+/-
esc
set tempo
stop
Author
Unregistered
Hi all,
Here is my bass tab for "Situations" by "escape the fate". There were some other 
versions but at some points they were just not right.. So that's why I uploaded this one!

Have Fun!

Intro:
G|---------------------------------------|
D|---------------------------------------|
A|---------------------------------------|
D|--10-10---99--9--9--66---55--9---------|

Verse 1:
G|---------------------------------------|
D|---------------------------------------|
A|-33333333-22222222---------------2222--|
D|-------------------66666666-5555-------|

Pre-Chorus:
G|---------------------------------------|---------------------------------------|
D|---------------------------------------|---------------------------------------|
A|---------------------------------------|---------------------------------------|
D|-33-333-333-3333-55-555-555-5555-------|-66-666-666-6666-88-888-8-99-999-------|

Chorus:
G|---------------------------------------|
D|---------------------------------------| 
A|-33333333-22222222---------------2222--|
D|-------------------66666666-5555-------|

Verse 2:
G|---------------------------------------|
D|---------------------------------------|
A|-33-------22222222---------------2222--|
D|-------------------66666666-5555-------|

G|---------------------------------------|
D|---------------------------------------|
A|-33333333-22222222---------------2222--|
D|-------------------66666666-5555-------|

Pre-Chorus:
G|---------------------------------------|---------------------------------------|
D|---------------------------------------|---------------------------------------|
A|---------------------------------------|---------------------------------------|
D|-33-333-333-3333-55-555-555-5555-------|-66-666-666-6666-88-888-8-99-999-------|

Chorus:
G|---------------------------------------|
D|---------------------------------------|  
A|-33333333-22222222---------------2222--|
D|-------------------66666666-5555-------|

G|---------------------------------------|
D|---------------------------------------|
A|-33333333-22222222-----------6-8-5-3---|
D|-------------------66666666------------|

Bridge:
G|---------------------------------------|
D|---------------------------------------|
A|-------------------33333333------------|
D|-66666666-33333333-------- -55555555---|

Verse:
G|--------------------------------------|
D|--------------------------------------|
A|--------------------------------------|
D|--------------------------------------|

Chorus:
G|---------------------------------------|
D|---------------------------------------|
A|-33333333-22222222---------------2222--| X3
D|-------------------66666666-5555-------|

G|---------------------------------------|
D|---------------------------------------|
A|-33333333-22222222-----------6-8-5 6-3-|
D|-------------------66666666------------|




            
            
Suggest correction
Creating personal tab
Creating personal tab
You can edit any tab online and save it as your Personal.

You can edit, replace or remove any tab part or add personal notes – all changes will be seen only by you.

Personal tabs can be accessed anytime from any device, even offline.
Learn more »
Give kudos to tab author, rate the tab!
1 2 3 4 5
comments
print report bad tab
1 comment total.
0 reply
MrMetalb0y 10 Jul 07, 2013 06:36 PM

their tuning is usually C G C F but its ok

guest
Wanna post a correction for this tab? Suggest correction