Oops, an error
Loading. Please wait.
We have an official Situations tab made by UG professional guitarists. Check out the tab »
×
19,089 views 6 this week
1 commentread comment
1 2 3 4 5
1 last vote to show rating
add to favorites
×
Save as Personal and add changes to this tab that will be seen only by you. Learn more ›
×
You can save this tab as Personal to edit and correct it or add notes. All changes will be seen only by you. Learn more »
launch autoscroll
font size
0
reset
how to read this tab
guitar tuner
edit
Autoscroll
slow
fast
+/-
esc
set tempo
stop
Tabbed by: Mike Escobedo
Band:Escape The Fate
Album:Dying Is Your Latest Fashion
Song:Situations
Tuning:Drop C     


.= Palm mute
~= Let ring
x= Mute
/= Slide
H= Hammeron
P= Pulloff

Intro
|-----------------------------|
|-----------------------------|
|-----------------------------|
|-----------------------------|
|-1212--1010--10-10~-88--77--10~~--|
|-1212--1010--10-10~-88--77--10~~--|
            

Verse
|-----------------------------------------------------------------------|
|-----------------------------------------------------------------------|
|-----------------------------------------------------------------------|
|-7777777777777777-6666666666666666---------------------------66666666--|
|-5555555555555555-4444444444444444-8888888888888888-77777777-44444444--|
|-----------------------------------8888888888888888-77777777-----------|
  ................ ................ ................ ........ ........

|----------------------|
|----------------------|
|-77----99---1010----99|
|-xx----xx---x--x----xx|
|-55----77---8--8----77|
|----------------------|x4


Pre-Chorus
|--------------------------------------------|
|--------------------------------------------|
|--------------------------------------------|
|-5555-7777-8888-1010101010101010-1010-1111--|
|-5555-7777-8888-1010101010101010-1010-1111--|
|-5555-7777-8888-1010101010101010-1010-1111--|
                                      .   .
Chorus
|---------------------------------------------|
|---------------------------------------------|
|-7--12--10--6--10--9--12--14--12----14---10--|
|-x--x---x---x--x---x--x---x----x----x-----x--| Strummed
|-5--10--8---4--8---7--10--12--10----12----8--|
|---------------------------------------------|


|-------|
|-------|
|-------|
|-------|
|-1212--|
|-1212--|


Verse
|-----------------------------------------------------------------------|
|-----------------------------------------------------------------------|
|-----------------------------------------------------------------------|
|-7777777777777777-6666666666666666---------------------------66666666--|
|-5555555555555555-4444444444444444-8888888888888888-77777777-44444444--|
|-----------------------------------8888888888888888-77777777-----------|
  ................ ................ ................ ........ ........

|----------------------|
|----------------------|
|-77----99---1010----99|
|-xx----xx---x--x----xx|
|-55----77---8--8----77|
|----------------------|x4

Pre-Chorus
|--------------------------------------------|
|--------------------------------------------|
|--------------------------------------------|
|-5555-7777-8888-1010101010101010-1010-1111--|
|-5555-7777-8888-1010101010101010-1010-1111--|
|-5555-7777-8888-1010101010101010-1010-1111--|
                                      
Chorus
|---------------------------------------------|
|---------------------------------------------|
|-7--12--10--6--10--9--12--14--12----14---10--|
|-x--x---x---x--x---x--x---x----x----x-----x--| Strummed
|-5--10--8---4--8---7--10--12--10----12----8--|
|---------------------------------------------|

|-----------|
|-----------|
|-----------|
|-7~3~5~2~--|
|-----------|
|-----------|
(You can play an octave/dual here)

|-----------------------------------|
|-----------------------------------|
|-12121212-5555555-1010101010101010-|
|-x-x-x-x--xxxxxxx-x-x-x-x-x-x-x-x--|
|-10101010-3333333-8-8-8-8-8-8-8-8--|
|-----------------------------------|


(Guitar 2)
|------------------------------------------------------------------------|
|------------------------------------------------------------------------|
|------------------------------------------------------------------------|
|-5555555555555555-7777777777777777-8888888888888888-101010101010101010--|
|-5555555555555555-7777777777777777-8888888888888888-101010101010101010--|
|-5555555555555555-7777777777777777-8888888888888888-101010101010101010--|

|------------------------------------|
|------------------------------------|
|------------------------------------|
|-5555555555555555-7777777777777777--|
|-5555555555555555-7777777777777777--|
|-5555555555555555-7777777777777777--|


Pre-Chorus
|----------------------------------------------------------|
|----------------------------------------------------------|
|----------------------------------------------------------|
|-7777777777777777-6666666666666666------------------9~~~--|
|-5555555555555555-4444444444444444-8888888888888888-x-----|
|-----------------------------------8888888888888888-7~~~--|

Chorus
|---------------------------------------------|
|---------------------------------------------|
|-7--12--10--6--10--9--12--14--12----14---10--|
|-x--x---x---x--x---x--x---x----x----x-----x--| Strummed
|-5--10--8---4--8---7--10--12--10----12----8--|
|---------------------------------------------|

The sweeping is an A flat major scale. If you dont know what that is, look it up.
Outro
|----------------|
|----------------|
|----------------|
|-7~3~5~2~~~~~---|
|-7~3~5~2~~~~~---|
|-7~3~5~2~~~~~---|



            
            
Suggest correction
Creating personal tab
Creating personal tab
You can edit any tab online and save it as your Personal.

You can edit, replace or remove any tab part or add personal notes – all changes will be seen only by you.

Personal tabs can be accessed anytime from any device, even offline.
Learn more »
Give kudos to tab author, rate the tab!
1 2 3 4 5
comments
print report bad tab
1 comment total.
0 reply
dont-hold-me-up 10 Jun 28, 2008 05:45 PM

hey at the beginning its not

|-----------------------------|
|-----------------------------|
|-----------------------------|
|-----------------------------|
|-1212--1010--10-10~-88--77--10~~--|
|-1212--1010--10-10~-88--77--10~~--|

its

|-----------------------------|
|-----------------------------|
|-----------------------------|
|-----------------------------|
|-1212--11.11--11-11~-88--77--11~~--|
|-1212--11.11--11-11~-88--77--11~~--|

guest
Wanna post a correction for this tab? Suggest correction