Oops, an error
Loading. Please wait.
We have an official Theres No Sympathy For The Dead tab made by UG professional guitarists. Check out the tab »
×
1,621 views 1 this week
1 commentread comment
1 2 3 4 5
x 3
add to favorites
×
Save as Personal and add changes to this tab that will be seen only by you. Learn more ›
×
You can save this tab as Personal to edit and correct it or add notes. All changes will be seen only by you. Learn more »
launch autoscroll
font size
0
reset
guitar tuner
edit
Autoscroll
slow
fast
+/-
esc
set tempo
stop
There’s No Sympathy for the Dead
Escape the Fate
Drop C
Tabbed by: Synysterblack
 
-Intro-
F|--------------------------------------------------------|
C|--------------------------------------------------------|
G|--------------------------------------------------------|
C|-0000-0----0000-0----0000-0~0~-0~-0000-0-0-00-0-00053---|

-Verse 1/A-
F|----------------------------------------------|
C|----------------------------------------------|
G|----------------------------------------------|x2
C|-0~0~000-3~33-3333-8~8~888-10~1010-10101010---|

F|----------------------------------------------|
C|----------------------------------------------|
G|----------------------------------------------|
C|-0~0~000~0-00-0000-8~8~888-10~1010-10101010---|

F|--------------------------------------|
C|--------------------------------------|
G|--------------------------------------|
C|-0~0~000-0~00-0000-8~8~888-00-5-003---|

-Verse 1/B-
F|----------------------------------------------------------------------|
C|----------------------------------------------------------------------|
G|----------------------------------------------------------------------|
C|-0~000000000000-3~333333333333-8~888888888888-5~55555555-7~77777777---|

F|-------------------------------------------------------------------|
C|----------------3--------7-5-3-----------7~77----------------------|
G|-----------353-3-1------------5-3-------8----888--------03~33330---|
C|-0~00000000---5---3~3333---------8~88888--------8/5~5555-----------|

-Break-
F|---------------------------------------------------------|
C|--78-12-1010-8-1212-10-8-0-7-8-10-8-7-8-1212-1010-8-7----|
G|-----------------------------------------------------8---|
C|---------------------------------------------------------|

F|--------------------------------|
C|--------------------------------|
G|--------------------------------|
C|-00000-0000000000000-00000000---|

F|-------------------------------------------------------|
C|-8-12-1010-8-1212-10-8-0-7-8-10-8-7-8-1212-1010-8-7----|
G|---------------------------------------------------8---|
C|-------------------------------------------------------|

F|---------------------------------|
C|---------------------------------|
G|---------------------------------|
C|-000000-0000000000000-00000000---|

-Pre-chorus 1-
F|---------------------------------------------------------------------------|
C|---------------------------------------------------------------------------|
G|----------------------------------------------------------------10875-875--|
C|-7777777777777777-8888888888881010108-7777777777777777-88888888------------|

-Chorus 1-
F|--------------------------------------|
C|--------------------------------------|
G|-5555550-1~11111111--------3~333310---|
C|-------------------3333333------------|
                           
F|--------------------------------------|
C|--------------------------------------|
G|-5555550-1~11111111--------3~333310---|
C|-------------------3333333------------|
                          
F|------------------------------------|
C|------------------------------------|
G|-5-5-550—1-1111111-------3~333310---|
C|------------------3333333-----------|

F|------------------------------------|
C|------------------------------------|
G|-5-5-550—1-1111111-------3~333310---|
C|------------------3333333-----------|

F|----------------------------------------------------|
C|-----------------10101010121212121414141415151515---|
G|-8877887788778870-----------------------------------|
C|----------------------------------------------------|

-Verse 2/A-
F|----------------------------------------------|
C|----------------------------------------------|
G|----------------------------------------------|
C|-0~0~000~0-00-0000-8~8~888-10~1010-10101010---|

F|---------------------------------------|
C|---------------------------------------|
G|---------------------------------------|
C|-0~0~000~0-00-0000-8~8~888-00-5-00-3---|

-Verse 2/B- 
F|-------------------------------------------------------------------|
C|----------------3--------7-5-3-----------7~77----------------------|
G|-----------353-3-1------------5-3-------8----888--------03~33330---|
C|-0~00000000---5---3~3333---------8~88888--------8/5~5555-----------|

F|-------------------------------------------------------------------|
C|----------------3--------7-5-3-----------7~77----------------------|
G|-----------353-3-1------------5-3-------8----888--------03~33330---|
C|-0~00000000---5---3~3333---------8~88888--------8/5~5555-----------|

-Break 2-
F|---------------------------------------------------------|
C|--78-12-1010-8-1212-10-8-0-7-8-10-8-7-8-1212-1010-8-7----|
G|-----------------------------------------------------8---|
C|---------------------------------------------------------|

F|--------------------------------|
C|--------------------------------|
G|--------------------------------|
C|-00000-0000000000000-00000000---|

F|-------------------------------------------------------|
C|-8-12-1010-8-1212-10-8-0-7-8-10-8-7-8-1212-1010-8-7----|
G|---------------------------------------------------8---|
C|-------------------------------------------------------|

F|---------------------------------|
C|---------------------------------|
G|---------------------------------|
C|-000000-0000000000000-00000000---|

-Pre-Chorus 1-
F|----------------------------------------------------------|
C|----------------------------------------------------------|
G|----------------------------------------------------------|
C|-7777777777777777-8888888888881010108-777777777777777-8---|

-Chorus 2-
F|---------------------------------------|
C|---------------------------------------|
G|-\5555550-1~11111111--------3~333310---|
C|-------------------3333333-------------|
                           
F|--------------------------------------|
C|--------------------------------------|
G|-5555550-1~11111111--------3~333310---|
C|-------------------3333333------------|
                          
F|------------------------------------|
C|------------------------------------|
G|-5-5-550—1-1111111-------3~333310---|
C|------------------3333333-----------|

F|------------------------------------|
C|------------------------------------|
G|-5-5-550—1-1111111-------3~333310---|
C|------------------3333333-----------|

F|----------------------------------------------------|
C|-----------------10101010121212121414141415151515---|
G|-8877887788778870-----------------------------------|
C|----------------------------------------------------|

-Solo 1/A-
F|--------------------------------------|
C|--------------------------------------|
G|-5555550-1~11111111--------3~333310---|
C|-------------------3333333------------|

F|--------------------------------------|
C|--------------------------------------|
G|-5555550-1~11111111--------3~333310---|
C|-------------------3333333------------|

F|--------------------------------------|
C|--------------------------------------|
G|-5555550-1~11111111--------3~333310---|
C|-------------------3333333------------|

F|--------------------------------------|
C|--------------------------------------|
G|-5555550-1~11111111--------3~333310---|
C|-------------------3333333------------|

-Solo 1/B-
F|---------------------------------------|
C|---------------------------------------|
G|-55555555-33333333-11111111-33333333---|
C|---------------------------------------|

F|-------------------------------------------------------|
C|-------------------------------------------------------|
G|-55555555-33333333-1111111111111111-3333333333333333---|
C|-------------------------------------------------------|

-Breakdown-
F|-----------------|
C|-----------------|
G|-----------------|
C|-----------------|

-Outro 1/A
F|----------------------------------------------------------------------|
C|----------------------------------------------------------------------|
G|-5555555555555555-3333333333333333----------------11111111-3333-------|
C|----------------------------------3333333333333333-------------0000---|

F|----------------------------------------------------------------------|
C|----------------------------------------------------------------------|
G|-5555555555555555-3333333333333333----------------11111111-3333-------|
C|----------------------------------3333333333333333-------------0000---|

-Outro 1/B-
F|----------------------------------------------------------------------|
C|----------------------------------3333333333333333--------------------|
G|-5555555555555555-3333333333333333----------------11111111-3333-------|
C|---------------------------------------------------------------0000---|

F|----------------------------------------------------------------------|
C|----------------------------------3333333333333333--------------------|
G|-5555555555555555-3333333333333333----------------11111111-3333-------|
C|---------------------------------------------------------------0000---|

F|----------------------------------------------------------------------|
C|----------------------------------3333333333333333--------------------|
G|-5555555555555555-3333333333333333----------------11111111-3333-------|
C|---------------------------------------------------------------0000---|

F|---------------------------------------------------------------------|
C|----------------------------------3333333333333333-------------------|
G|-5555555555555555-3333333333333333----------------11111111-----------|
C|----------------------------------------------------------00000000---|

F|---------|--------------------------|
C|---------|--------------------------|
G|---------|-17~--15~--12~-13~--15~---|x4
C|-0~~~~~--|--------------------------|

            
            
Suggest correction
Creating personal tab
Creating personal tab
You can edit any tab online and save it as your Personal.

You can edit, replace or remove any tab part or add personal notes – all changes will be seen only by you.

Personal tabs can be accessed anytime from any device, even offline.
Learn more »
Give kudos to tab author, rate the tab!
1 2 3 4 5
comments
print report bad tab
1 comment total.
0 reply
synysterblack 528 May 04, 2009 12:27 PM

oh ya if you want to play the part where the viloens are you can do this
F|---------------------|
C|---------------------|
G|-17~--15~--12~--13~--|
C|---------------------|
until the stuff stops

guest
You may want to rate the tab now too:
select rating
Wanna post a correction for this tab? Suggest correction