Oops, an error
Loading. Please wait.
We have Chord Pro version of This War Is Ours.
It's the closest thing you can get to the original song and it has interactive parts. Check out the tab »
×

This War Is Ours guitar pro

version 2
version 2

Whole song

61,893 views 21 this week
6 commentsread comments
1 2 3 4 5
x 31
add to favorites
guitar tuner
Autoscroll
slow
fast
+/-
esc
set tempo
stop
"This War Is Ours"
demo version
Play now

or get full version for Free

×
Get full version now!
Learn and play this song
in Tab Pro
Try for free

or get $10 off Welcome Bonus

Get welcome bonus
Get access to Tab Pro version of “This War Is Ours”!
Tab Pro is a premium guitar tab service, available on PC, Mac, iOS and Android
TRY FOR FREE
To download “This War Is Ours” Guitar Pro tab click button below
Please note that you must have Guitar Pro software installed on your
computer in order to view this file.
Suggest correction
comments
report bad tab
6 comments total. Showing first comments.
0 reply
_InsanitY_ 163 Feb 08, 2010 09:50 AM

brilliant tab, 5 stars

0 reply
SFS_SLAYER_07 10 Jun 23, 2010 08:05 AM

great tab 5 stars!

0 reply
ArreatsChozen 41 Mar 21, 2011 09:22 PM

Theres one error in the sweep, and the little licks he does in between are pretty wrong.

-----10-5--------------10-5----------------
----7----7-----------7------7--------------
---6------7--------6----------7------------
--7--------------7-------------------------
-9-------------9---------------------------
-------------------------------------------

This is the second sweep.
The little lick run after the first sweep passage:
--------------------------------------
--------------------------------------
--------------6-7---------------------
-------6-7-99------6-6-6-6-6-6-6-6----
-5-7-9--------------------------------
--------------------------------------


He plays two 9's as 32nd notes and then the rest are just 6's, not another lick run.

Next after both sweep runs you have licks quite wrong.
12--------------------------------------
---15-14-12-14-12-10-9----10-9----------
-----------------------11------11-9~~~~-
----------------------------------------
----------------------------------------
----------------------------------------

Then the next bit of fast hammer ons and pull offs is also wrong.
t-t-t------t-t-t------t-t-t------r-------------- 
-------------------------------------------------
7-10-7---7-8-12-8-----10-14-10-------12-15-12----
-------7----------9-r----------11-r-----------13-
-------------------------------------------------
-------------------------------------------------
-------------------------------------------------

The first three hammer ons and pull offs are actually triplets. After the first one set, theres 16th note rests after the bottom note, and the last set of four are just straight 16th notes.

The solo is also not tremolod as much as you have done, especially the notes which are meant to ring out for an eight note, not a 16th and then more tremolo.

If you can't understand the tab I've given send me a message and I'll just email you my gp5 file.
Cheers.

guest
You may want to rate the tab now too:
select rating