Oops, an error
Loading. Please wait.

Webs We Weave tab

version 2
version 2

Whole song

Interactive

15,439 views 1 this week
6 commentsread comments
1 2 3 4 5
x 7
add to favorites
×
Save as Personal and add changes to this tab that will be seen only by you. Learn more ›
×
You can save this tab as Personal to edit and correct it or add notes. All changes will be seen only by you. Learn more »
launch autoscroll
font size
0
reset
how to read this tab
guitar tuner
edit
Autoscroll
slow
fast
+/-
esc
set tempo
stop
Artist: Escape The Fate
Song: "The Webs We Weave"
Album: Dying Is Your Latest Fashion
Tuning: Dropped C
Date: April 2. '07


The lead breakdown guitar may be off, but the rythem guitar is good. Please Rate my tab =D. Thanks.

Intro.
D|--------------------------------------------------------| \
A|--------------------------------------------------------| |
F|-----1212121212111111111212------1616161616141414141616-| |
C|x2-2-x-x-x-x-x-x-x-x-x-x-x--x2-2-x-x-x-x-x-x-x-x-x-x-x--| |
G|x2-2-10101010109-9-9-9-1010-x2-2-1414141414121212121414-| |
C|x2-2------------------------x2-2------------------------| |
                                                             x2
D|----------------------------------------------------|     |
A|----------------------7h8p7-------------------------|     |
F|12-1212-12121211-1111------9-12-1212-1214X11-1111xxx|     |
C|x--x-x--x-x-x-x--x-x---------x--x-x--x-x-Xx--x-x-xxx|     |
G|10-1010-1010109--9-9---------10-1010-1010X9--9-9-xxx|     |
C|-------------------------------------------------xxx|     /

Verse:
D|-----------------------5555------------------------------------------|
A|----5555-7777-888-----------8888-777------5555-7777-888--------------|
F|---------------------------------------------------------------------|
C|2-2---------------x2-2---------------x5-5---------------x5-5xxx4-4xxx| x2
G|2-2---------------x2-2---------------x3-3---------------x5-5xxx4-4xxx|
C|2-2---------------x2-2---------------x------------------x5-5xxx4-4xxx|

Pre-Chorus:
D|------------------------------------------------------------------|
A|------------------------------------------------------------------|
F|9-99-999-999-99911-1111-111111-111111-111211-9-99-999-999-9998----|
C|x-xx-xxx-xxx-xxxx--x-x--x-x-x--x-x-x--x-x-x--x-xx-xxx-xxx-xxxx-5-4|
G|7-77-777-777-7779--9-9--9-9-9--9-9-9--9-10-9-7-77-777-777-7776-5-4|
C|---------------------------------------------------------------5-4|

Chorus:
D|--------------------------------------------------------| \
A|--------------------------------------------------------| |
F|-----1212121212111111111212------1616161616141414141616-| |
C|x2-2-x-x-x-x-x-x-x-x-x-x-x--x2-2-x-x-x-x-x-x-x-x-x-x-x--| |
G|x2-2-10101010109-9-9-9-1010-x2-2-1414141414121212121414-| |
C|x2-2------------------------x2-2------------------------| |
                                                             x2
D|----------------------------------------------------|     |
A|----------------------7h8p7-------------------------|     |
F|12-1212-12121211-1111------9-12-1212-1214X11-1111xxx|     |
C|x--x-x--x-x-x-x--x-x---------x--x-x--x-x-Xx--x-x-xxx|     |
G|10-1010-1010109--9-9---------10-1010-1010X9--9-9-xxx|     |
C|-------------------------------------------------xxx|     /

Crazy Tapping Part(trust me, it's a tapping jig):
D|-------------|
A|-------------|
F|-------------|
C|2-2------x2-2|
G|2-2------x2-2|
C|2-2------x2-2|

THEN DO:
Verse x2
Pre-Chorus
Chorus x2

Breakdown bridgey thing:
D|---------------------------------------------------------------|
A|---------------------------------------------------------------|
F|---------------------------------------------------------------|
C|555555555555555-777777777777777-999999999999999-999999999999999| x4
G|333333333333333-555555555555555-777777777777777-777777777777777|
C|---------------------------------------------------------------|

                        OR!!!!!!

(i don't think this is right, but it sounds close enough)
D|---------------------------------|-------------------------------|
A|0-8-0-12-0-8-0-10-0-8-0-12-0----0|0-8-0-12-0-8-0-10-0-8-10-0----0|
F|-----------------------------11--|---------------------------11--| x8
C|---------------------------------|-------------------------------| 
G|---------------------------------|-------------------------------|
C|---------------------------------|-------------------------------|

D|---------------------|----------------------------------------------------|
A|---------------------|----------------------7h8p7-------------------------|
F|---------------------|12-1212-12121211-1111------9-12-1212-1214X11-1111xxx|
C|2-2------x2-2-------0|x--x-x--x-x-x-x--x-x---------x--x-x--x-x-Xx--x-x-xxx|
G|2-2------x2-2-------0|10-1010-1010109--9-9---------10-1010-1010X9--9-9-xxx|
C|2-2------x2-2-------0|-------------------------------------------------xxx|

Final Chorus:
D|--------------------------------------------------------| 
A|--------------------------------------------------------| 
F|-----1212121212111111111212------1616161616141414141616-| 
C|x2-2-x-x-x-x-x-x-x-x-x-x-x--x2-2-x-x-x-x-x-x-x-x-x-x-x--| 
G|x2-2-10101010109-9-9-9-1010-x2-2-1414141414121212121414-|
C|x2-2------------------------x2-2------------------------| 
                                                            
D|----------------------------------------------------|     
A|----------------------7h8p7-------------------------|     
F|12-1212-12121211-1111------9-12-1212-1214X11-1111xxx|    
C|x--x-x--x-x-x-x--x-x---------x--x-x--x-x-Xx--x-x-xxx|     
G|10-1010-1010109--9-9---------10-1010-1010X9--9-9-xxx|    
C|-------------------------------------------------xxx|    

End:
D|--------|
A|--------|
F|--------|
C|2-2-0---|
G|2-2-0---|
C|2-2-0-2~|

            
            
Suggest correction
Creating personal tab
Creating personal tab
You can edit any tab online and save it as your Personal.

You can edit, replace or remove any tab part or add personal notes – all changes will be seen only by you.

Personal tabs can be accessed anytime from any device, even offline.
Learn more »
comments
print report bad tab
6 comments total. Showing first comments.
+1 reply
Stodaz 174 May 03, 2008 04:35 AM

this "breakdown bridgey thing" semms to me to be like that:

D|----15--14--15--14--15--17--15(p14?)--
A|--17--17--17--17--17--17--17-----------

another guitar plays this an oktave below I think

further more I play this song in D Drop... so I don't have to jump all over the neck ;)

+1 reply
lt22 51 Jun 12, 2009 11:42 AM

^^good for you but ETF plays it in drop C for a reason. why, you ask? well, first off cuz the intro should go like this

D|--------------------------------------------------------| \
A|---------------------------------00000-0000-0-----------| |
F|-----00000-0000-0----------------44444\2222/4-----------| |
C|x2-2-55555\4444/5-----------x2-2------------------------| |
G|x2-2------------------------x2-2------------------------| |
C|x2-2------------------------x2-2------------------------|

2nd off cuz the verse should go like this:

D|-0---0---0-------0---0---0-------------------------|
A|-5---7---8-------10--8---7-------------------------|
F|---------------------------------------------------|
C|---------------------------------------------------| x2
G|---------------------------------------------------|
C|---------------------------------------------------|
not necessarily 100% correct, but the open notes are there, that I'm 500% sure of.

come to think of it I should tab this song...

0 reply
andres1 106 Jun 18, 2009 06:15 PM

on the intro try

D|--------------------------------------------|
A|--------------------------------------------|
F|------10-10-10-10-10\9-9-9-9/10--------------|
C|-0-0--x--x--x--x--x--x-x-x-x-x--------------|
G|-0-0--8--8--8--8--8\-7-7-7-7/8--------------|
C|-0-0----------------------------------------|

it's easier to play and sounds better to me

guest
You may want to rate the tab now too:
select rating
Wanna post a correction for this tab? Suggest correction