Oops, an error
Loading. Please wait.
We have an official You Are So Beautiful tab made by UG professional guitarists. Check out the tab »
×
6,345 views 1 this week
2 commentsread comments
1 2 3 4 5
3 more votes to show rating
add to favorites
×
Save as Personal and add changes to this tab that will be seen only by you. Learn more ›
×
You can save this tab as Personal to edit and correct it or add notes. All changes will be seen only by you. Learn more »
launch autoscroll
font size
0
reset
guitar tuner
edit
Autoscroll
slow
fast
+/-
esc
set tempo
stop
not sure if its all corect but i tried

intro
G|---------------------------------------------------------------|
D|---------------------------------------------------------------|
A|---------------------------------------------------------------|
E|33-7-22-2-33-7-22-22-33-7-22-2-33-7-22-------------------------|

verse
G|---------------------------------------------------------------|
D|---------------------------------------------------------------|
A|777767----333323-----------------------------------------------|
E|-----------------333-----777-0-2-3-5-777-----------------------|

G|---------------------------------------------------------------|
D|---------------------------------------------------------------|
A|777767----333323-------------33333333--------------------------|
E|-----------------333-----777-----------------------------------|

chorus
G|---------------------------------------------------------------|
D|---------------------------------------------------------------|
A|7777777777777777-3333333333333333------------------------------]x4
E|---------------------------------0-333---777-00-22-33-77-------|
(pretty sure it isnt right)

post chorus
G|----------------------------------------------------|
D|----------------------------------------------------|
A|----------------------------------------------------|
E|00000-00--------------------------------------------]

verse
chorus x2
G|---------------------------------------------------------------|
D|---------------------------------------------------------------|
A|---------------------------------------------------------------|
E|0000222233337777-----------------------------------------------|

bridge
G|---------------------------------------------------------------|
D|---------------------------------------------------------------|
A|---------------------------------------------------------------|x3
E|77777-77-66666-66-33333-33-00000-00-023532---------------------|

OR

G|---------------------------------------------------------------|
D|---------------------------------------------------------------|
A|77777-77-66666-66-33333-33-------------------------------------|x3
E|--------------------------33333-33-023532----------------------|

G|--------|
D|--------|
A|--------|x3
E|023532--|

G|---------------------------------------------------------------|
D|---------------------------------------------------------------|
A|---------------------------------------------------------------|
E|0000222233337777-----------------------------------------------|

not sure about the ending

            
            
Suggest correction
Creating personal tab
Creating personal tab
You can edit any tab online and save it as your Personal.

You can edit, replace or remove any tab part or add personal notes – all changes will be seen only by you.

Personal tabs can be accessed anytime from any device, even offline.
Learn more »
Give kudos to tab author, rate the tab!
1 2 3 4 5
comments
print report bad tab
2 comments total.
0 reply
synysterblack 528 Jan 24, 2009 04:36 PM

the chorus is times 2 i accidentally put 4

0 reply
synysterblack 528 Jan 27, 2009 04:50 PM

and listen to the song for timing and such

guest
Wanna post a correction for this tab? Suggest correction