Oops, an error
Loading. Please wait.

Youre Insane bass

version 1
version 1

Whole song

Interactive

3,050 views 1 this week
3 commentsread comments
1 2 3 4 5
x 4
add to favorites
×
Save as Personal and add changes to this tab that will be seen only by you. Learn more ›
×
You can save this tab as Personal to edit and correct it or add notes. All changes will be seen only by you. Learn more »
launch autoscroll
font size
0
reset
guitar tuner
edit
Autoscroll
slow
fast
+/-
esc
set tempo
stop
0:01 Intro
F|-----------------------------------------------------------------|
C|-----------------------------------------------------------------|
G|-----------------------------------------------------------------|
C|-0-------------------------------------------------------/---/---|
   1 + 2 + 3 + 4 + 1 + 2 + 3 + 4 + 1 + 2 + 3 + 4 + 1 + 2 + 3 + 4 +

F|-----------------------------------------------------------------|
C|-----------------------------------------------------------------|
G|-----------------------------------------------------------------|
C|-0-------------------------------------------------6-6-6-6-5-3-0-|
   1 + 2 + 3 + 4 + 1 + 2 + 3 + 4 + 1 + 2 + 3 + 4 + 1 + 2 + 3 + 4 +

0:15
F|-----------------------------------------------------------------|
C|-----------------------------------------------------------------|
G|-----------------------------------------------------------------|
C|-3-0-0-5-0-0-0-0-0-6-0-0-6-0-5-0-3-0-0-5-0-0-0-0-0-6-6-6-6-5-3---|
   1 + 2 + 3 + 4 + 1 + 2 + 3 + 4 + 1 + 2 + 3 + 4 + 1 + 2 + 3 + 4 +

0:21 Verse x2
F|-------------------------------------------------------------------|
C|o-----------------------------------------------------------------o|
G|o-----------------------------------------------------------------o|
C|--3-0-0-0---00000-------0-5-6-5-0-3-0-0-0---00000--------5650-3\---|
    1 + 2 + 3 + 4 + 1 + 2 + 3 + 4 + 1 + 2 + 3 + 4 + 1 + 2 + 3 + 4 +

0:35 Pre-Chorus
F|-----------------------------------------------------------------|
C|-----------------------------------------------------------------|
G|-----------------------------------------------------------------|
C|-3-0-0-5-0-0-0-0-0-6-0-0-6-0-5---3-0-0-5-0-0-0-0-0-0-0-0-00000000|
   1 + 2 + 3 + 4 + 1 + 2 + 3 + 4 + 1 + 2 + 3 + 4 + 1 + 2 + 3 + 4 +

F|-----------------------------------------------------------------|
C|-----------------------------------------------------------------|
G|-----------------------------------------------------------------|
C|-3-0-0-5-0-0-0-0-0-6-0-0-6-0-5---3-0-0-5-0-0-0-0-0-6-6-6-6-5-3---|
   1 + 2 + 3 + 4 + 1 + 2 + 3 + 4 + 1 + 2 + 3 + 4 + 1 + 2 + 3 + 4 +

0:49 Chorus
F|-----------------------------------------------------------------|
C|-----------------------------------------------------------------|
G|-----------------0-0-0-0-0-0-0-0-1-1-1-1-1-1-1-1---------3-3-3-3-|
C|-0-0-0-0-0-0-0-0---------------------------------3-3-3-3---------|
   1 + 2 + 3 + 4 + 1 + 2 + 3 + 4 + 1 + 2 + 3 + 4 + 1 + 2 + 3 + 4 +

F|-----------------------------------------------------------------|
C|-----------------------------------------------------------------|
G|-----------------0-0-0-0-0-0-0-0-1-1-1-1-1-1-1-1-----------------|
C|-0-0-0-0-0-0-0-0---------------------------------3-3-3-3-2-2-2-2-|
   1 + 2 + 3 + 4 + 1 + 2 + 3 + 4 + 1 + 2 + 3 + 4 + 1 + 2 + 3 + 4 +

1:03 Interlude
F|-----------------------------------------------------------------|
C|-----------------------------------------------------------------|
G|-----------------------------------------------------------------|
C|-3-0-0-5-0-0-0-0-0-6-0-0-6-0-5-0-3-0-0-5-0-0-0-0-0-6-6-6-6-5-3---|
   1 + 2 + 3 + 4 + 1 + 2 + 3 + 4 + 1 + 2 + 3 + 4 + 1 + 2 + 3 + 4 +

1:09 Verse x2
F|-------------------------------------------------------------------|
C|o-----------------------------------------------------------------o|
G|o-----------------------------------------------------------------o|
C|--3-0-0-0---00000-------0-5-6-5-0-3-0-0-0---00000--------5650-3\---|
    1 + 2 + 3 + 4 + 1 + 2 + 3 + 4 + 1 + 2 + 3 + 4 + 1 + 2 + 3 + 4 +

1:23 Pre-Chorus
F|-----------------------------------------------------------------|
C|-----------------------------------------------------------------|
G|-----------------------------------------------------------------|
C|-3-0-0-5-0-0-0-0-0-6-0-0-6-0-5---3-0-0-5-0-0-0-0-0-0-0-0-00000000|
   1 + 2 + 3 + 4 + 1 + 2 + 3 + 4 + 1 + 2 + 3 + 4 + 1 + 2 + 3 + 4 +

F|-----------------------------------------------------------------|
C|-----------------------------------------------------------------|
G|-----------------------------------------------------------------|
C|-3-0-0-5-0-0-0-0-0-6-0-0-6-0-5---3-0-0-5-0-0-0-0-0-6-6-6-6-5-3---|
   1 + 2 + 3 + 4 + 1 + 2 + 3 + 4 + 1 + 2 + 3 + 4 + 1 + 2 + 3 + 4 +

1:37 Chorus x2
F|------------------------------------------------------------------|
C|o-----------------------------------------------------------------|
G|o-----------------0-0-0-0-0-0-0-0-1-1-1-1-1-1-1-1---------3-3-3-3-|
C|--0-0-0-0-0-0-0-0---------------------------------3-3-3-3---------|
    1 + 2 + 3 + 4 + 1 + 2 + 3 + 4 + 1 + 2 + 3 + 4 + 1 + 2 + 3 + 4 +

F|------------------------------------------------------------------|
C|-----------------------------------------------------------------o|
G|-----------------0-0-0-0-0-0-0-0-1-1-1-1-1-1-1-1-----------------o|
C|-0-0-0-0-0-0-0-0---------------------------------3-3-3-3-2-2-2-2--|
   1 + 2 + 3 + 4 + 1 + 2 + 3 + 4 + 1 + 2 + 3 + 4 + 1 + 2 + 3 + 4 +

2:04 Bridge x2
F|-------------------------------------------------------------------|
C|o------------HEY!!-----------HEY!!------------HEY!!---------------o|
G|o-----------------------------------------------------------------o|
C|--3-0-0-5-0-0-----3-0-0-5-0-0-----3-0-0-5-0-0-------6-6-6-6-5-3----|
    1 + 2 + 3 + 4 + 1 + 2 + 3 + 4 + 1 + 2 + 3 + 4 + 1 + 2 + 3 + 4 +

2:18 Solo
F|-----------------------------------------------------------------|
C|-----------------------------------------------------------------|
G|-----------------------------------------------------------------|
C|-3-0-0-5-0-0-0-0-0-6-0-0-6-0-5---3-0-0-5-0-0-0-0-0-0-0-0-0-0-0-0-|
   1 + 2 + 3 + 4 + 1 + 2 + 3 + 4 + 1 + 2 + 3 + 4 + 1 + 2 + 3 + 4 +

F|-----------------------------------------------------------------|
C|-----------------------------------------------------------------|
G|-----------------------------------------------------------------|
C|-3-0-0-5-0-0-0-0-0-6-0-0-6-0-5---3-0-0-5-0-0-0-0-0-6-6-6-6-5-3-0-|
   1 + 2 + 3 + 4 + 1 + 2 + 3 + 4 + 1 + 2 + 3 + 4 + 1 + 2 + 3 + 4 +

F|-------------------------------------------------|
C|-------------------------------------------------|
G|-------------------------------------------------|
C|---6-6-6-6-5-3-0---6-6-6-6-5-3-0-----------------|
   1 + 2 + 3 + 4 + 1 + 2 + 3 + 4 + 1 + 2 + 3 + 4 +

2:37 Chorus x2
F|-----------------------------------------------------------------|
C|-----------------------------------------------------------------|
G|-----------------0-0-0-0-0-0-0-0-1-1-1-1-1-1-1-1---------3-3-3-3-|
C|-0-0-0-0-0-0-0-0---------------------------------3-3-3-3---------|
   1 + 2 + 3 + 4 + 1 + 2 + 3 + 4 + 1 + 2 + 3 + 4 + 1 + 2 + 3 + 4 +

F|-----------------------------------------------------------------|
C|-----------------------------------------------------------------|
G|-----------------0-0-0-0-0-0-0-0-1-1-1-1-1-1-1-1-----------------|
C|-0-0-0-0-0-0-0-0---------------------------------3-3-3-3-2-2-2-2-|
   1 + 2 + 3 + 4 + 1 + 2 + 3 + 4 + 1 + 2 + 3 + 4 + 1 + 2 + 3 + 4 +

F|-----------------------------------------------------------------|
C|-----------------------------------------------------------------|
G|-----------------0-0-0-0-0-0-0-0-1-1-1-1-1-1-1-1---------33333333|
C|-0-0-0-0-0-0-0-0---------------------------------3-3-3-3---------|
   1 + 2 + 3 + 4 + 1 + 2 + 3 + 4 + 1 + 2 + 3 + 4 + 1 + 2 + 3 + 4 +

F|-----------------------------------------------------------------|
C|-----------------------------------------------------------------|
G|-----------------0-0-0-0-0-0-0-0-1-1-1-1-1-1-1-1-----------------|
C|-0-0-0-0-0-0-0-0---------------------------------3-3-3-3-2-2-2-2-|
   1 + 2 + 3 + 4 + 1 + 2 + 3 + 4 + 1 + 2 + 3 + 4 + 1 + 2 + 3 + 4 +

3:04 Outro
F|-------------------------------------------------------------------|
C|o------------HEY!!-----------HEY!!------------HEY!!---------------o|
G|o-----------------------------------------------------------------o|
C|--3-0-0-5-0-0-----3-0-0-5-0-0-----3-0-0-5-0-0-------6-6-6-6-5-3----|
    1 + 2 + 3 + 4 + 1 + 2 + 3 + 4 + 1 + 2 + 3 + 4 + 1 + 2 + 3 + 4 +

F|-----------------------------------------------------------------|
C|-----------------------------------------------------------------|
G|-----------------------------------------------------------------|
C|-0---------------------------------------------------------------|
   1 + 2 + 3 + 4 + 1 + 2 + 3 + 4 + 1 + 2 + 3 + 4 + 1 + 2 + 3 + 4 +

Tabbed By Jack Mills

            
            
Suggest correction
Creating personal tab
Creating personal tab
You can edit any tab online and save it as your Personal.

You can edit, replace or remove any tab part or add personal notes – all changes will be seen only by you.

Personal tabs can be accessed anytime from any device, even offline.
Learn more »
comments
print report bad tab
3 comments total.
0 reply
Chilee 10 Sep 08, 2014 05:17 AM

Chorus: I believe the chorus's go like this from watching videos of Max playing this live. Not saying you're wrong, just a different way to play it :)

F|---------------------------------------------------------------------|
C|---------------------------------------------------------------------|
G|---------------------------------------------------------------------|
C|-0-0-0-0-0-0-0-0-7-7-7-7-7-7-7-7-8-8-8-8-8-8-8-8-3-3-3-3-10-10-10-10-|
1 + 2 + 3 + 4 + 1 + 2 + 3 + 4 + 1 + 2 + 3 + 4 + 1 + 2 + 3 + 4 +

F|-----------------------------------------------------------------|
C|-----------------------------------------------------------------|
G|-----------------------------------------------------------------|
C|-0-0-0-0-0-0-0-0-7-7-7-7-7-7-7-7-8-8-8-8-8-8-8-8-3-3-3-3-2-2-2-2-|
1 + 2 + 3 + 4 + 1 + 2 + 3 + 4 + 1 + 2 + 3 + 4 + 1 + 2 + 3 + 4 +

0 reply
JackMills 6,147 Sep 08, 2014 06:23 AM

It's the same notes, just on different frets, play it however! It was TJ who played the bass on the record though :]

+1 reply
Chilee 10 Sep 08, 2014 04:50 PM

Haha yeah yeah I was going to say that I understand it was TJ doing bass at the time of the album in brackets :P so just different artists' take ^^

guest
You may want to rate the tab now too:
select rating
Wanna post a correction for this tab? Suggest correction