Oops, an error
Loading. Please wait.

Pitch Blease tab

919 views 6 this week
no commentswrite comment
1 2 3 4 5
1 last vote to show rating
add to favorites
×
Save as Personal and add changes to this tab that will be seen only by you. Learn more ›
×
You can save this tab as Personal to edit and correct it or add notes. All changes will be seen only by you. Learn more »
launch autoscroll
font size
0
reset
how to read this tab
guitar tuner
edit
Autoscroll
slow
fast
+/-
esc
set tempo
stop
"Pitch Blease"

Eskimo Callboy - 2015

Rate and Comment Corrections Please!! 

7-String Drop Ab
Ab Eb Ab Db Gb Bb Eb

. PM
~ Strumming 
^ Special Indicator
* PH 
b bend

Intro
(0:00 - 0:24) 
Eb|--------|-------------------------------------------------------------||------|
Bb|--------|-------------------------------------------------------------||------|
Gb|--------|-------------------------------------------------------------||------|
Db|--------|-------------------------------------------------------------||------|
Ab|--------|-------------------------------------------------------------||--12--|
Eb|--------|-------------------------------------------------------------||--12--|
Ab|-8--13--|-12-12-12-10-12--12-12-12-10-12--8-8-8-8-8-5-5-5-10-10-10----||--12--|

     x1         Repeat x4 (gets a bit slower 3rd and 4th times                 ^ 4th time only


Breakdown 
(0:25-0:39) 
Eb|----------------------|------------------------------------------------------|
Bb|----------------------|------------------------------------------------------|
Gb|----------------------|------------------------------------------------------|
Db|----------------------|------------------------------------------------------|
Ab|----------------------|------------------------------------------------------|
Eb|----------------------|------------------------------------------------------|
Ab|--0--0000-0-00-00-0-0-|-0000-0--00-00-0--0000-0-00-00--8-8888--10-10101010---|
        ....   .  .        ....    .  .     ....   .  .     . .      .   .

Play entire breakdown x2

Vocal Bridge
(0:40-0:53) 

Chorus 
(0:54-1:07) 
Eb|-----------------------------------------------|
Bb|-----------------------------------------------|
Gb|--------------5--------5-----------------------|
Db|-7-------5----5--------3-------3-------5-------|
Ab|-7-------5----3--------3-------3-------5-------|
Eb|-5-------3---------------------1-------3-------|
Ab|-----------------------------------------------|
x2 (listen for strumming pattern)

Electronic Chorus
(1:08-1:24)

Repeat Intro Riff 
(1:25-1:41)

Breakdown 2
(1:42-2:00) 
Eb|-----------------------------------|----------------------------------------------------------------|
Bb|-----------------------------------|----------------------------------------------------------------|
Gb|-----------------------------------|--------------3-------------------------------------------------|
Db|-----------------------------------|--------------2----------------------------7--------------------|
Ab|-----------------------------------|-------------------------------------------7--------------------|
Eb|-----------------------------------|--111-1-1-11-----1111-1-1-11---------------5--------------------|
Ab|-00-0-00-0-0-0----0000-0-0-0-0-----|--111-1-1-11-----1111-1-1-11---000-0-0-00------0000-0-0-00------|
    ..   .    .      ....     .          ... . . ..     .... . . ..   ... . . ..      .... . . ..
    x2                                  x1


Repeat Chorus
(2:17-2:30)

Repeat Electronic Chorus
(2:31-2:45)

Outro
(2:45-3:00) 
Eb|----------------------------------------|
Bb|----------------------------------------|
Gb|------------------------5---------------|
Db|-3----5----7-------3----5----5----------|
Ab|-3----5----7-------3----3----5----------|
Eb|-1----3----5-------1---------3----------|
Ab|----------------------------------------|

(3:01-end) 
Eb|--------------------|------------------|----------------------------------|
Bb|--------------------|------------------|----------------------------------|
Gb|--------------------|------------------|----------------------------------|
Db|--------------------|------------------|----------------------------------|
Ab|--------------------|------------------|----------------------------------|
Eb|-----------2--------|-------2----------|-------2--------------------------|
Ab|--0--0-2-3----3-2-0-|-0-2-3----3-2-0-0-|-0-2-3---3-2-2b-2b-1b-1b--0-------|

   x2

End



            
            
Suggest correction
Creating personal tab
Creating personal tab
You can edit any tab online and save it as your Personal.

You can edit, replace or remove any tab part or add personal notes – all changes will be seen only by you.

Personal tabs can be accessed anytime from any device, even offline.
Learn more »
Give kudos to tab author, rate the tab!
1 2 3 4 5
comments
print report bad tab
guest
You may want to rate the tab now too:
select rating
Wanna post a correction for this tab? Suggest correction