Oops, an error
Loading. Please wait.

Girl album tab

415 views 1 this week
no commentswrite comment
1 2 3 4 5
1 last vote to show rating
add to favorites
×
Save as Personal and add changes to this tab that will be seen only by you. Learn more ›
×
You can save this tab as Personal to edit and correct it or add notes. All changes will be seen only by you. Learn more »
launch autoscroll
font size
0
reset
how to read this tab
guitar tuner
edit
Autoscroll
slow
fast
+/-
esc
set tempo
stop
-----------------------------------------------------------------------------
			     GIRL - Eskimo Joe
-----------------------------------------------------------------------------
Tabbed by: a_rush_of_blood
Email: soccerdude_7134@hotmail.com

I submit this on behalf of evryone who created these tabs who are credited at the tabs. 
liar tab is a little messy, so sorry.
----------------------------------
GIRL- ESKIMO JOE
1. Head Hurts
2. Wake Up
3. Planet Earth
4. Who Sold Her Out
5. Love List
6. Liar
7. Election
8. Take A Rest
9. Slow Down
10. Sydney Song
11. Just Like Me
12. Driver
----------------------------------

1. Head Hurts

  		/----------------------PLEASE NOTE------------------------\
 	       /    This file is the author's own work and represents      \
	      <    their interpretation of the song. You may only use       >
               \  this file for private study, scholarship, or research.   /
  		\---------------------------------------------------------/

Song Title:	Head Hurts
Album:		Girl (2001)
Band:		Eskimo Joe
Tabbed By:	Ktulu (jerry@kornmail.zzn.com)
Date Tabbed:	24/01/02


---------------------------------------------------------------------------------------------


If you have any corrections please email me.

Order:
   Intro
   Verse x 2
   Bridge
   Verse
   Bridge
   Outro

Intro
~~~~~
E: |----------------------|
B: |----------------------|
G: |----------------------| x 4
D: |----------------------|
A: |----------------------|
E: |--0----5h7-5/-10--10--|

Verse
~~~~~
E: |----------------------|
B: |----------------------|
G: |----------------------| x 4
D: |----------------------|
A: |----------------------|
E: |--0----5h7-5/-10--10--|

E: |------------|
B: |------------|
G: |------------| x 2
D: |------------|
A: |------5-2---|
E: |--3-2-------|

E: |----------------------|
B: |----------------------|
G: |----------------------| x 4
D: |----------------------|
A: |----------------------|
E: |--0----5h7-5/-10--10--|

Bridge
~~~~~~
      B     E     B     E
E: |---------------------------|
B: |----7-----9-----7-----9----|
G: |-----8-----9-----8-----9---| x 2
D: |--9---9-9---9-9---9-9---9--|
A: |---------------------------|
E: |---------------------------|

      A
E: |--5------------------------|
B: |--5------------------------|
G: |--6------------------------|
D: |--7------------------------|
A: |--7------------------------|
E: |--5------------------------|

      B     E     B     E
E: |---------------------------|
B: |----7-----9-----7-----9----|
G: |-----8-----9-----8-----9---|
D: |--9---9-9---9-9---9-9---9--|
A: |---------------------------|
E: |---------------------------|

Outro
~~~~~
E: |----------------------|
B: |----------------------|
G: |----------------------| x 10
D: |----------------------|
A: |----------------------|
E: |--0----5h7-5/-10--10--|

E: |------------|
B: |------------|
G: |------------| x 2
D: |------------|
A: |------5-2---|
E: |--3-2-------|

E: |----------------------|
B: |----------------------|
G: |----------------------| x 2
D: |----------------------|
A: |----------------------|
E: |--0----5h7-5/-10--10--|

E: |------------|
B: |------------|
G: |------------| x 2
D: |------------|
A: |------5-2---|
E: |--3-2-------|

E: |----------------------|
B: |----------------------|
G: |----------------------| x 2 (End on open E)
D: |----------------------|
A: |----------------------|
E: |--0----5h7-5/-10--10--|


2. Wake Up

Song : Wake Up
Artist : Eskimo Joe
Album : Girl

Tabbed By Andrew Schultz  (tab_boy@dingoblue.net.au)

Tuning: Standard

Intro

e  ----------------------------------------------------|
b  ----7---7---7---7---7---7----etc--------------------|
g  --7---7---7---7---7---7---7-------------------------|
d  ----------------------------------------------------|
a  ----------------------------------------------------|
E  ----------------------------------------------------|

Then Change

e  ----------------------------------------------------|
b  ----3---3---3------5---5---5------------------------|
g  --3---3---3---3--5---5---5---5----------------------|
d  ----------------------------------------------------|
a  ----------------------------------------------------|
E  ----------------------------------------------------|

Verse

"There Is One Thing That.."

e  --------10-----10----------------------------|
b  ----7------7------7--------------------------|
g  --7---7------7------7------------------------|
d  ---------------------------------------------|
a  ---------------------------------------------|
E  ---------------------------------------------|

Pre-Chorus (Chorus)

"Let Me Show You What.."

e  ---------------------------------------------|
b  ---------------------------------------------|
g  ---------------------------------------------|
d  --7-----5------------------------------------|
a  --5--5--3------------------------------------|
E  -----3---------------------------------------|

e  ---------------------------------------------|
b  ---------------------------------------------|
g  --5b-----------------------------------------|
d  --x-----slowly bend up notes-----------------|
a  --3b-----------------------------------------|
E  ---------------------------------------------|

Chorus

"When I Wake Up.."

Rhythm Guitar

e  ---------------------------------------------|
b  ---------------------------------------------|
g  ---------------------------------------------|
d  --7------------------------------------------|
a  --5--9---------------------------------------|
E  -----7---------------------------------------|

Lead Guitar

e  -----------------------------------------------|
b  --7-------------7----------7---------7---------|
g  ------9---7--------9----7------9----------9----|
d  -----------------------------------------------|
a  -----------------------------------------------|
E  -----------------------------------------------|

"You Look So Good.."

e  ---------------------------------------------|
b  ---------------------------------------------|
g  ---------------------------------------------|
d  --7--5---------------------------------------|
a  --5--3--7------------------------------------|
E  --------5------------------------------------|

Rhythm Guitar

"To Me.."

e  ---------------------------------------------|
b  ---------------------------------------------|
g  ---------------------------------------------|
d  --7------------------------------------------|
a  --5------------------------------------------|
E  ---------------------------------------------|

Lead Guitar

e  ---------------------------------------------|
b  -------7-------7-----------------------------|
g  ----9-------9--------------------------------|
d  --7-------7----------------------------------|
a  ---------------------------------------------|
E  ---------------------------------------------|

Solo

e  -------------------------------------------------------|
b  -------------------------------------------------------|
g  --/11-----/11---------------------------9-10-11--------|
d  ------12------12---9h11-11h12-11h12--12---------12-12--|
a  -------------------------------------------------------|
E  -------------------------------------------------------|

3. Planet Earth

Song Title:	Planet Earth
Album:		Girl (2001)
Band:		Eskimo Joe
Tabbed By:	Ktulu (jerry@kornmail.zzn.com), Lead Intro by kristian012@yahoo.com.au
Date Updated:	26/01/02


---------------------------------------------------------------------------------------------


If you have any corrections please email me at jerry@kornmail.zzn.com.

Listen to CD for strumming.

Lead Intro
~~~~~~~~~~
         D               Bm                G
E: |------------------------------------------------------------------------------------|
B: |-------------3-2-----------------------------2-3-5-3-2-----------3-2---------2-3----|
G: |---------------------4-2-----------------4---------------4-------------4-2-4--------|
D: |-----0-----------------------5-4-5--------------------------------------------------|
A: |-------------------------------------------------------------2----------------------|
E: |---------------------------------------3--------------------------------------------|

       E                  G
E: |------------------------------------------------------------------------------------|
B: |--------------------------------2-3-------------------------------------------------|
G: |--------1-2-4----------------4------------------------------------------------------|
D: |------------------------------------------------------------------------------------|
A: |------------------------------------------------------------------------------------|
E: |---0------------------3-------------------------------------------------------------|

Verse
~~~~~
       D       G       Bm      E    G
E: |---2-------3-------222222220----3---|
B: |---3-------3-------332232320----3---|
G: |---2-------0-------444444441----0---| x 2
D: |---0-------0-------444444442----0---|
A: |-----------2-------222222222----2---|
E: |-----------3-------222222220----3---|

Chorus
~~~~~~
       D       E       G       E    G
E: |---2-------7-------3-------7----3---|
B: |---3-------9-------3-------9----3---|
G: |---2-------9-------0-------9----0---|
D: |---0-------9-------0-------9----0---|
A: |-----------7-------2-------7----2---|
E: |-----------7-------3-------7----3---|

Verse
~~~~~
       D       G       Bm      E    G
E: |---2-------3-------222222220----3---|
B: |---3-------3-------332232320----3---|
G: |---2-------0-------444444441----0---| x 2
D: |---0-------0-------444444442----0---|
A: |-----------2-------222222222----2---|
E: |-----------3-------222222220----3---|

Chorus
~~~~~~
       D       E       G       E    G
E: |---2-------7-------3-------7----3---|
B: |---3-------9-------3-------9----3---|
G: |---2-------9-------0-------9----0---| x 2
D: |---0-------9-------0-------9----0---|
A: |-----------7-------2-------7----2---|
E: |-----------7-------3-------7----3---|

Bridge
~~~~~~
       E       G
E: |---7-------3---|
B: |---9-------3---|
G: |---9-------0---|
D: |---9-------0---|
A: |---7-------2---|
E: |---7-------3---|

Verse
~~~~~
       D               G               Bm              E       G
E: |-----2---2---2---2---3---3---3---3---2---2---2---2---0---0---3---3----|
B: |------3---3---3---3---3---3---3---3---3---3---3---3---0---0---3---3---|
G: |----2---2---2---2---0---0---0---0---4---4---4---4---1---1---0---0-----| x 2
D: |---0---0---0---0---0---0---0---0---4---4---4---4---2---2---0---0------|
A: |----------------------------------------------------------------------|
E: |----------------------------------------------------------------------|

Chorus
~~~~~~
       D       E       G       E    G
E: |---2-------7-------3-------7----3---|
B: |---3-------9-------3-------9----3---|
G: |---2-------9-------0-------9----0---|
D: |---0-------9-------0-------9----0---|
A: |-----------7-------2-------7----2---|
E: |-----------7-------3-------7----3---|

Outro
~~~~~
       D       E       G       E        G    D
E: |---2-------7-------3-------0--------3----2---|
B: |---3-------9-------3-------0--------3----3---|
G: |---2-------9-------0-------1--------0----2---|
D: |---0-------9-------0-------2--------0----0---|
A: |-----------7-------2-------2--------2--------|
E: |-----------7-------3-------0--------3--------|

4. Who Sold Her Out

Song Title:	Who Sold Her Out
Album:		Girl (2001)
Band:		Eskimo Joe
Tabbed By:	Ktulu (jerry@kornmail.zzn.com)
Date Updated:	31/01/02


---------------------------------------------------------------------------------------------


If you have any corrections please email me.

Guitar 1 uses a capo on the 9th fret.

Order:
   Verse x 4
   Chorus x 2
   Verse x 3
   Chorus x 2
   Bridge 1 x 2
   Bridge 2
   Verse x 3
   Chorus x 2
   Bridge 1 x 2
   Bridge 2 x 2
   (Bass Bridge 1)
   Bridge 1 (Guitar 1 Only)
   Chorus x 6

Verse - Guitar 1
~~~~~~~~~~~~~~~~
E: |------0-------0-------0-------3----|
B: |--------3-------3-------3-------3--|
G: |----2-------2-------2-------2------|
D: |--0--------------------------------|
A: |----------3-------2-------1--------|
E: |-----------------------------------|

Chorus - Guitar 1
~~~~~~~~~~~~~~~~~
E: |--2--3-----|
B: |--3--3--3--|
G: |--2--0--3--|
D: |--0--0--3--|
A: |--0--2--1--|
E: |--0--3-----|

Chorus - Guitar 2
~~~~~~~~~~~~~~~~~
E: |-----------|
B: |--4--------|
G: |--4--1--4--|
D: |--4--2--5--|
A: |--2--2--5--|
E: |-----0--3--|

Bridge 1 - Guitar 1
~~~~~~~~~~~~~~~~~~~
E: |----------0---------------0---------------0-----------0-------0----|
B: |------3-----3---3-----3-----3---3-----3-----3---3-------3-------3--|
G: |----2---2-----2-----1---1-----1-----0---0-----0-----2-------1------|
D: |--0----------------------------------------------------------------|
A: |------------------2---------------1---------------2-------1--------|
E: |-------------------------------------------------------------------|

Bridge 1 - Guitar 2
~~~~~~~~~~~~~~~~~~~
E: |-----------------|
B: |--4--6-----4-----|
G: |--4--6--1--4--4--|
D: |--4--6--2--4--5--|
A: |--2--4--2--2--5--|
E: |--------0-----3--|

Bridge 2 - Guitar 2
~~~~~~~~~~~~~~~~~~~
E: |-----------------------|
B: |--------6-----4--------|
G: |--5--1--6--1--4--1--4--|
D: |--6--2--6--2--4--2--5--|
A: |--6--2--4--2--2--2--5--|
E: |--4--0-----0-----0--3--|

5. Love List

Song Title:	Love List
Album:		Girl (2001)
Band:		Eskimo Joe
Tabbed By:	Ktulu (sirktulu@hotmail.com)
Tabbed For:	http://eskyjoe.cjb.net/
Date Tabbed:	01/04/03
Last Modified:	--/--/--


---------------------------------------------------------------------------------------------


If you have any corrections please email me.

Listen to song for strumming.

Order:
   Intro
   Verse
   Chorus
   Bridge
   Verse
   Chorus
   Bridge x 2
   Chorus

Intro (Guitar 1)
~~~~~~~~~~~~~~~~

      F#                              A
E: |--2-------------------------------5--------------------------------|
B: |--2-------------------------------5--------------------------------|
G: |--3-------------------------------6--------------------------------|
D: |--4-------------------------------7--------------------------------|
A: |--4-------------------------------7--------------------------------|
E: |--2-------------------------------5--------------------------------|

      E
E: |--0----------------------------------------------------------------|
B: |--0----------------------------------------------------------------|
G: |--1----------------------------------------------------------------|
D: |--2----------------------------------------------------------------|
A: |--2----------------------------------------------------------------|
E: |--0----------------------------------------------------------------|

      F#                              A
E: |--2-------------------------------5--------------------------------|
B: |--2-------------------------------5--------------------------------|
G: |--3-------------------------------6--------------------------------|
D: |--4-------------------------------7--------------------------------|
A: |--4-------------------------------7--------------------------------|
E: |--2-------------------------------5--------------------------------|

      E               A               C#              F#
E: |--0---------------5---------------4---------------2----------------|
B: |--0---------------5---------------6---------------2----------------|
G: |--1---------------6---------------6---------------3----------------|
D: |--2---------------7---------------6---------------4----------------|
A: |--2---------------7---------------4---------------4----------------|
E: |--0---------------5---------------4---------------2----------------|

Intro (Guitar 2)
~~~~~~~~~~~~~~~~

E: |-------------------------------------------------------------------|
B: |-------------------------------------------------------------------|
G: |-------------------------------------------------------------------|
D: |-------------------------------------------------------------------|
A: |-------------------------------------------------------------------|
E: |-------------------------------------------------------------------|

E: |-------------------------------------------------------------------|
B: |-------------------------------------------------------------------|
G: |-------------------------------------------------------------------|
D: |-------------------------------------------------------------------|
A: |-------------------------------------------------------------------|
E: |-------------------------------------------------------------------|

E: |--------0-------0-------0---------------0-------0-------0----------|
B: |------0-----0-------0-------0---0-----0-----0-------0-------0---0--|
G: |----1---------1-------1-------1-----2---------2-------2-------2----|
D: |--2-------------------------------2--------------------------------|
A: |-------------------------------------------------------------------|
E: |-------------------------------------------------------------------|

E: |--------0---------------0---------------0---------------0----------|
B: |------0-----0---0-----0-----0---0-----0-----0---0-----0-----0---0--|
G: |----1---------1-----2---------2-----3---------3-----4---------4----|
D: |--2---------------2---------------2---------------2----------------|
A: |-------------------------------------------------------------------|
E: |-------------------------------------------------------------------|


Verse (Guitar 1)
~~~~~~~~~~~~~~~~

      E               C#              F#              A
E: |--0---------------4---------------2---------------5----------------|
B: |--0---------------6---------------2---------------5----------------|
G: |--1---------------6---------------3---------------6----------------|
D: |--2---------------6---------------4---------------7----------------|
A: |--2---------------4---------------4---------------7----------------|
E: |--0---------------4---------------2---------------5----------------|

      E               A               C#              F#
E: |--0---------------5---------------4---------------2----------------|
B: |--0---------------5---------------6---------------2----------------|
G: |--1---------------6---------------6---------------3----------------|
D: |--2---------------7---------------6---------------4----------------|
A: |--2---------------7---------------4---------------4----------------|
E: |--0---------------5---------------4---------------2----------------|

      E               A               F#              A
E: |--0---------------5---------------2---------------5----------------|
B: |--0---------------5---------------2---------------5----------------|
G: |--1---------------6---------------3---------------6----------------|
D: |--2---------------7---------------4---------------7----------------|
A: |--2---------------7---------------4---------------7----------------|
E: |--0---------------5---------------2---------------5----------------|

      E               C#              F#              A
E: |--0---------------4---------------2---------------5----------------|
B: |--0---------------6---------------2---------------5----------------|
G: |--1---------------6---------------3---------------6----------------|
D: |--2---------------6---------------4---------------7----------------|
A: |--2---------------4---------------4---------------7----------------|
E: |--0---------------4---------------2---------------5----------------|

      E               A               F#              A
E: |--0---------------5---------------2---------------5----------------|
B: |--0---------------5---------------2---------------5----------------|
G: |--1---------------6---------------3---------------6----------------|
D: |--2---------------7---------------4---------------7----------------|
A: |--2---------------7---------------4---------------7----------------|
E: |--0---------------5---------------2---------------5----------------|


Verse (Guitar 2)
~~~~~~~~~~~~~~~~

      G#      E       C#      E       G#      E       C#      E
E: |-------------------------------------------------------------------|
B: |-------------------------------------------------------------------|
G: |--13------9-------6-------9-------13------9-------6-------9--------|
D: |-------------------------------------------------------------------|
A: |--11------7-------4-------7-------11------7-------4-------7--------|
E: |-------------------------------------------------------------------|

      G#      E       C#      E       G#              C#
E: |-------------------------------------------------------------------|
B: |-------------------------------------------------------------------|
G: |--13------9-------6-------9-------13--------------6----------------|
D: |-------------------------------------------------------------------|
A: |--11------7-------4-------7-------11--------------4----------------|
E: |-------------------------------------------------------------------|

      G#      E       C#      E       G#      E       C#      E
E: |-------------------------------------------------------------------|
B: |-------------------------------------------------------------------|
G: |--13------9-------6-------9-------13------9-------6-------9--------|
D: |-------------------------------------------------------------------|
A: |--11------7-------4-------7-------11------7-------4-------7--------|
E: |-------------------------------------------------------------------|

      G#      E       C#      E       G#              C#
E: |-------------------------------------------------------------------|
B: |-------------------------------------------------------------------|
G: |--13------9-------6-------9-------13--------------6----------------|
D: |-------------------------------------------------------------------|
A: |--11------7-------4-------7-------11--------------4----------------|
E: |-------------------------------------------------------------------|

      G#      E       C#      E       G#      E       C#
E: |-------------------------------------------------------------------|
B: |-------------------------------------------------------------------|
G: |--13------9-------6-------9-------13------9-------6----------------|
D: |-------------------------------------------------------------------|
A: |--11------7-------4-------7-------11------7-------4----------------|
E: |-------------------------------------------------------------------|


Chorus (Guitar 1)
~~~~~~~~~~~~~~~~~

      F#                              A
E: |--2-------------------------------5--------------------------------|
B: |--2-------------------------------5--------------------------------|
G: |--3-------------------------------6--------------------------------|
D: |--4-------------------------------7--------------------------------|
A: |--4-------------------------------7--------------------------------|
E: |--2-------------------------------5--------------------------------|

      E
E: |--0----------------------------------------------------------------|
B: |--0----------------------------------------------------------------|
G: |--1----------------------------------------------------------------|
D: |--2----------------------------------------------------------------|
A: |--2----------------------------------------------------------------|
E: |--0----------------------------------------------------------------|

      F#                              A
E: |--2-------------------------------5--------------------------------|
B: |--2-------------------------------5--------------------------------|
G: |--3-------------------------------6--------------------------------|
D: |--4-------------------------------7--------------------------------|
A: |--4-------------------------------7--------------------------------|
E: |--2-------------------------------5--------------------------------|

      E
E: |--0----------------------------------------------------------------|
B: |--0----------------------------------------------------------------|
G: |--1----------------------------------------------------------------|
D: |--2----------------------------------------------------------------|
A: |--2----------------------------------------------------------------|
E: |--0----------------------------------------------------------------|

Chorus (Guitar 2)
~~~~~~~~~~~~~~~~~

E: |--------0-------0-------0---------------0-------0-------0----------|
B: |------0-----0-------0-------0---0-----0-----0-------0-------0---0--|
G: |----3---------3-------3-------3-----2---------2-------2-------2----|
D: |--2-------------------------------2--------------------------------|
A: |-------------------------------------------------------------------|
E: |-------------------------------------------------------------------|

E: |--------0-------0-------0---------------4-------4-------4----------|
B: |------0-----0-------0-------0---0-----0-----0-------0-------0---0--|
G: |----1---------1-------1-------1-----1---------1-------1-------1----|
D: |--2-------------------------------2--------------------------------|
A: |-------------------------------------------------------------------|
E: |-------------------------------------------------------------------|

E: |--------4-------4-------4---------------0-------0-------0----------|
B: |------0-----0-------0-------0---0-----0-----0-------0-------0---0--|
G: |----3---------3-------3-------3-----2---------2-------2-------2----|
D: |--2-------------------------------2--------------------------------|
A: |-------------------------------------------------------------------|
E: |-------------------------------------------------------------------|

(Don't play on last chorus)
E: |--------0---------------0---------------0---------------0----------|
B: |------0-----0---0-----0-----0---0-----0-----0---0-----0-----0---0--|
G: |----1---------1-----2---------2-----3---------3-----4---------4----|
D: |--2---------------2---------------2---------------2----------------|
A: |-------------------------------------------------------------------|
E: |-------------------------------------------------------------------|


Bridge
~~~~~~
      E               B               A               C   D
E: |--7---------------7---------------5---------------3---5------------|
B: |--9---------------7---------------5---------------5---7------------|
G: |--9---------------8---------------6---------------5---7------------|
D: |--9---------------9---------------7---------------5---7------------|
A: |--7---------------9---------------7---------------3---5------------|
E: |--7---------------7---------------5---------------3---5------------|

      E               B               A               C       D
E: |--7---------------7---------------5---------------3-------5--------|
B: |--9---------------7---------------5---------------5-------7--------|
G: |--9---------------8---------------6---------------5-------7--------|
D: |--9---------------9---------------7---------------5-------7--------|
A: |--7---------------9---------------7---------------3-------5--------|
E: |--7---------------7---------------5---------------3-------5--------|

6. Liar

Song Title:	Liar
Album:		Girl (2001)
Band:		Eskimo Joe
Tabbed By:	Ktulu (jerry@kornmail.zzn.com)
Date Tabbed:	07/03/02


Capo on 4th fret of all guitars. Usually Guitar 3 is played by piano on a backing tape in
live gigs but it's played on guitar in acoustic sets. Also in acoustic sets Guitars 1 & 2
are played on 1 guitar. With guitar 2, only chord changes are shown so listen to the song
for strumming.

If you have any corrections please email me.

Order:
   Intro
   Verse 1
   Pre-Chorus
   Chorus
   Intro
   Verse 2
   Pre-Chorus
   Chorus x 2
   Intro (Gtr 3 only)
   Bridge
   Outro

Intro (Guitar 1)
~~~~~
E: |-------------------------------------------------------------------|
B: |--8\5-5\3-3-----------5---3-------8\5-5\3-3-----------5---3--------|
G: |--0-----------3/4-4-----------3/4-0-----------3/4-4-----------3/4--|
D: |-------------------------------------------------------------------|
A: |-------------------------------------------------------------------|
E: |-------------------------------------------------------------------|

Intro (Guitar 3)
~~~~~
E: |--7---7---7---7---7---7---7---10--7---7---7---7---7---7---7---10---|
B: |----8---8---8---8---8---8---8---8---8---8---8---8---8---8---8---8--|
G: |-------------------------------------------------------------------|
D: |-------------------------------------------------------------------|
A: |-------------------------------------------------------------------|
E: |-------------------------------------------------------------------|

Verse 1 (Guitar 2)
~~~~~~~
      G               Em              G               Em              C               Am
E: |--3-------3-------0-------0-------3-------3-------0-------0-------0-------0-------0-------0--------|
B: |--3-------3-------0-------0-------3-------3-------0-------0-------1-------1-------1-------0--------|
G: |--0-------0-------0-------0-------0-------0-------0-------0-------0-------0-------2-------2--------|
D: |--0-------0-------2-------0-------0-------0-------2-------0-------2-------0-------2-------2--------|
A: |--2-------0-------2-------2-------2-------0-------2-------2-------3-------3-------0-------0--------|
E: |--3-------3-------0-------0-------3-------3-------0-------0----------------------------------------|

      G               Em              G               Em              C               Am
E: |--3-------3-------0-------0-------3-------3-------0-------0-------0-------0-------0-------0--------|
B: |--3-------3-------0-------0-------3-------3-------0-------0-------1-------1-------1-------0--------|
G: |--0-------0-------0-------0-------0-------0-------0-------0-------0-------0-------2-------2--------|
D: |--0-------0-------2-------0-------0-------0-------2-------0-------2-------0-------2-------2--------|
A: |--2-------0-------2-------2-------2-------0-------2-------2-------3-------3-------0-------0--------|
E: |--3-------3-------0-------0-------3-------3-------0-------0----------------------------------------|

Verse 1 (Guitar 3)
~~~~~~~
E: |------------------------------------------------------------------7---7---7---7---7---7---7---10---|
B: |--------------------------------------------------------------------8---8---8---8---8---8---8---8--|
G: |---------------------------------------------------------------------------------------------------|
D: |---------------------------------------------------------------------------------------------------|
A: |---------------------------------------------------------------------------------------------------|
E: |---------------------------------------------------------------------------------------------------|

E: |--7---7---7---7---7---7---7---10--7---7---7---7---7---7---7---10--7---7---7---7---7---7---7---10---|
B: |----8---8---8---8---8---8---8---8---8---8---8---8---8---8---8---8---8---8---8---8---8---8---8---8--|
G: |---------------------------------------------------------------------------------------------------|
D: |---------------------------------------------------------------------------------------------------|
A: |---------------------------------------------------------------------------------------------------|
E: |---------------------------------------------------------------------------------------------------|

Pre-Chorus (Guitar 1)
~~~~~~~~~~
E: |------2-----0---------2-0---------------0---------------0----------|
B: |----0-----0---0-----0-----0-----------1---1-----------1---1--------|
G: |--0-----0---------0---------0-------2-------2-------0-------0------|
D: |----------------2-------------2---2-----------2---2-----------2----|
A: |--------------------------------0---------------3---------------3--|
E: |-------------------------------------------------------------------|

Pre-Chorus (Guitar 2)
~~~~~~~~~~
      G               Em              Am              C
E: |--3-------3-------0-------0-------0-------0-------0-------0--------|
B: |--3-------3-------0-------0-------1-------0-------1-------1--------|
G: |--0-------0-------0-------0-------2-------2-------0-------0--------|
D: |--0-------0-------2-------0-------2-------2-------2-------0--------|
A: |--2-------0-------2-------2-------0-------0-------3-------3--------|
E: |--3-------3-------0-------0----------------------------------------|

Pre-Chorus (Guitar 3)
~~~~~~~~~~
E: |--7---7---7---7---7---7---7---10--7---7---7---7---7---7---7---10---|
B: |----8---8---8---8---8---8---8---8---8---8---8---8---8---8---8---8--|
G: |-------------------------------------------------------------------|
D: |-------------------------------------------------------------------|
A: |-------------------------------------------------------------------|
E: |-------------------------------------------------------------------|

Chorus (Guitar 1 & 2)
~~~~~~
      G               F               E               A#      C       G
E: |--3---------------1---------------0---------------1-------0-------3|
B: |--3---------------1---------------0---------------3-------1-------3|
G: |--0---------------2---------------1---------------3-------0-------0|
D: |--0---------------3---------------2---------------3-------2-------0|
A: |--2---------------0---------------2---------------1-------3-------2|
E: |--3-------------------------------0---------------1---------------3|

Verse 2 (Guitar 2)
~~~~~~~
      G               Em              G               Em              C               Am
E: |--3-------3-------0-------0-------3-------3-------0-------0-------0-------0-------0-------0--------|
B: |--3-------3-------0-------0-------3-------3-------0-------0-------1-------1-------1-------0--------|
G: |--0-------0-------0-------0-------0-------0-------0-------0-------0-------0-------2-------2--------|
D: |--0-------0-------2-------0-------0-------0-------2-------0-------2-------0-------2-------2--------|
A: |--2-------0-------2-------2-------2-------0-------2-------2-------3-------3-------0-------0--------|
E: |--3-------3-------0-------0-------3-------3-------0-------0----------------------------------------|

Verse 2 (Guitar 3)
~~~~~~~
E: |------------------------------------------------------------------7---7---7---7---7---7---7---10---|
B: |--------------------------------------------------------------------8---8---8---8---8---8---8---8--|
G: |---------------------------------------------------------------------------------------------------|
D: |---------------------------------------------------------------------------------------------------|
A: |---------------------------------------------------------------------------------------------------|
E: |---------------------------------------------------------------------------------------------------|

Bridge (Guitar 2)
~~~~~~
      Am              Am              Am              Am
E: |--0---------0-----0---------0-----0---------0-----0----------------|
B: |--1---------1-----1---------1-----1---------1-----1----------------|
G: |--2---------0-----2---------0-----2---------0-----2----------------|
D: |--2---------2-----2---------2-----2---------2-----2----------------|
A: |--0---------0-----0---------0-----0---------0-----0----------------|
E: |-------------------------------------------------------------------|

Bridge (Guitar 3)
~~~~~~
E: |--7---7---7---10--7---7---7---10--7---7---7---10--7---7---7---10---|
B: |----8---8---8---8---8---8---8---8---8---8---8---8---8---8---8---8--|
G: |-------------------------------------------------------------------|
D: |-------------------------------------------------------------------|
A: |-------------------------------------------------------------------|
E: |-------------------------------------------------------------------|

Outro (Guitar 1)
~~~~~
E: |-------------------------------------------------------------------|
B: |--8\5-5\3-3-----------5---3-------8\5-5\3-3-----------5---3--------|
G: |--0-----------3/4-4-----------3/4-0-----------3/4-4-----------3/4--|
D: |-------------------------------------------------------------------|
A: |-------------------------------------------------------------------|
E: |-------------------------------------------------------------------|

Outro (Guitar 2)
~~~~~
      G               Em              G               Em
E: |--3-------3-------0-------0-------3-------3-------0-------0--------|
B: |--3-------3-------0-------0-------3-------3-------0-------0--------|
G: |--0-------0-------0-------0-------0-------0-------0-------0--------| x 2
D: |--0-------0-------2-------0-------0-------0-------2-------0--------|
A: |--2-------0-------2-------2-------2-------0-------2-------3--------|
E: |--3-------3-------0-------0-------3-------3-------0-------0--------|


7. Election

Song Title:	Election
Album:		Girl (2001)
Band:		Eskimo Joe
Tabbed By:	Ktulu (jerry@kornmail.zzn.com)
Date Tabbed:	12/12/01


If you have any corrections please email me.

Listen to CD for strumming.

Guitar is on clean unless specified.

Verse
~~~~~
      G    A    Em   C  FF#
E: |------------------------|
B: |-----------------5------|
G: |--4----6----0----5--23--|
D: |--5----7----2----5--34--|
A: |--5----7----2----3--34--|
E: |--3----5----0-------12--|

Bridge
~~~~~~
      G    A    A#   G#
E: |--------------------|
B: |--------------------|
G: |--4----6----7----5--| x 2
D: |--5----7----8----6--|
A: |--5----7----8----6--|
E: |--3----5----6----4--|

Chorus (Distortion)
~~~~~~
      G    A    Em   C  FF#
E: |------------------------|
B: |-----------------5------|
G: |--4----6----0----5--23--| x 2
D: |--5----7----2----5--34--|
A: |--5----7----2----3--34--|
E: |--3----5----0-------12--|

Verse
~~~~~
      G    A    Em   C  FF#
E: |------------------------|
B: |-----------------5------|
G: |--4----6----0----5--23--| x 2
D: |--5----7----2----5--34--|
A: |--5----7----2----3--34--|
E: |--3----5----0-------12--|

Bridge
~~~~~~
      G    A    A#   G#
E: |--------------------|
B: |--------------------|
G: |--4----6----7----5--|
D: |--5----7----8----6--|
A: |--5----7----8----6--|
E: |--3----5----6----4--|


Chorus (Distortion)
~~~~~~
      G    A    Em   C  FF#
E: |------------------------|
B: |-----------------5------|
G: |--4----6----0----5--23--| x 4
D: |--5----7----2----5--34--|
A: |--5----7----2----3--34--|
E: |--3----5----0-------12--|

Outro
~~~~~
      G    A    Em   C  FF#   G
E: |-----------------------------|
B: |-----------------5-----------|
G: |--4----6----0----5--23----4--|
D: |--5----7----2----5--34----5--|
A: |--5----7----2----3--34----5--|
E: |--3----5----0-------12----3--|

8. Take a Rest

Song Title:	Take A Rest
Album:		Girl (2001)
Band:		Eskimo Joe
Tabbed By:	Ktulu (jerry@kornmail.zzn.com)
Date Tabbed:	02/12/01


All I know at the moment is the intro riff and the verse.
Listen to CD for strumming.

Intro
~~~~~
E: |---------------------------------------------------------------|
B: |---------------------------------------------------------------|
G: |---------------------------------------------------------------| x 2
D: |--------2---1-2--------2---1-2--------2---1-2------------------|
A: |-2-2--2---2-----0-0--0---0-----4-4--0---0------------0h1---0-1-|
E: |----------------------------------------------3-3--3-----3-----|

Verse
~~~~~
     B   A   C#  G
E: |---------------|
B: |-4---2---6-----|
G: |-4---2---6---4-| x 2
D: |-4---2---6---5-|
A: |-2---0---4---5-|
E: |-------------3-|

9. Slow Down

Song Title:	Slow Down
Album:		Girl (2001)
Band:		Eskimo Joe
Tabbed By:	Ktulu (jerry@kornmail.zzn.com)
Date Tabbed:	12/12/01


If you have any corrections please email me.

This song is very easy, just two chords throughout the whole song.  It sounds like it's
played with two guitars but it still sounds just as good with one.  You'll have to 
to
the song to get the proper strumming but for the verses I put down the basic strumming which
includes the little hammer thing Stu does.

Verse
~~~~~
      D
E: |---2222-2222-----|
B: |---3333-3333-----|
G: |---2222-22222h4--| x 4
D: |--0----0---------|
A: |--0----0---------|
E: |-----------------|

Chorus
~~~~~~
      D    Gm
E: |--2----3--|
B: |--3----3--|
G: |--2----3--| x 2
D: |-------5--|
A: |-------5--|
E: |-------3--|

Verse
~~~~~
      D
E: |---2222-2222-----|
B: |---3333-3333-----|
G: |---2222-22222h4--| x 4
D: |--0----0---------|
A: |--0----0---------|
E: |-----------------|

Chorus
~~~~~~
      D    Gm
E: |--2----3--|
B: |--3----3--|
G: |--2----3--| x 2
D: |-------5--|
A: |-------5--|
E: |-------3--|

Outro
~~~~~
      D
E: |---2222-2222-----|
B: |---3333-3333-----|
G: |---2222-2222-----| x 8
D: |--0----0---------|
A: |--0----0---------|
E: |-----------------|

10. Sydney Song

Song Title:	Sydney Song
Album:		Girl (2001)
Band:		Eskimo Joe
Tabbed By:	Ktulu (jerry@kornmail.zzn.com)
Date Tabbed:	12/12/01

If you have any corrections please email me.

Listen to CD for strumming.

Intro
~~~~~
     F#   D    B
E: |---------------|
B: |-11------------|
G: |-11---11---8---| x 2
D: |-11---12---9---|
A: |-9----12---9---|
E: |------10---7---|

Verse
~~~~~
      F#   D
E: |----------|
B: |--11------|
G: |--11---11-| x 2
D: |--11---12-|
A: |--9----12-|
E: |-------10-|

Pre-Chorus
~~~~~~~~~~
      B    D    B    D
E: |--------------------|
B: |-------7------------|
G: |--8----7----8----11-| x 2
D: |--9----7----9----12-|
A: |--9----5----9----12-|
E: |--7---------7----10-|

Chorus
~~~~~~
      F#
E: |-----------------------------------------------------|
B: |------11-----------11-----------11-------------------|
G: |----------11-----------11-----------11-----------11--|
D: |---------------------------------------------11------|
A: |--9------------9------------9------------9-----------|
E: |-----------------------------------------------------|

      D
E: |-----------------------------------------------------|
B: |------10-----------10-----------10-------------------|
G: |----------11-----------11-----------11-----------11--| x 2
D: |---------------------------------------------12------|
A: |--12-----------12-----------12-----------12----------|
E: |-----------------------------------------------------|

Verse
~~~~~
      F#   D
E: |----------|
B: |--11------|
G: |--11---11-| x 2
D: |--11---12-|
A: |--9----12-|
E: |-------10-|

Pre-Chorus
~~~~~~~~~~
      B    D    B    D
E: |--------------------|
B: |-------7------------|
G: |--8----7----8----11-| x 2
D: |--9----7----9----12-|
A: |--9----5----9----12-|
E: |--7---------7----10-|

Chorus
~~~~~~
      F#
E: |-----------------------------------------------------|
B: |------11-----------11-----------11-------------------|
G: |----------11-----------11-----------11-----------11--|
D: |---------------------------------------------11------|
A: |--9------------9------------9------------9-----------|
E: |-----------------------------------------------------|

      D
E: |-----------------------------------------------------|
B: |------10-----------10-----------10-------------------|
G: |----------11-----------11-----------11-----------11--| x 4
D: |---------------------------------------------12------|
A: |--12-----------12-----------12-----------12----------|
E: |-----------------------------------------------------|

Intro
~~~~~
     F#   D    B
E: |---------------|
B: |-11------------|
G: |-11---11---8---| x 3
D: |-11---12---9---|
A: |-9----12---9---|
E: |------10---7---|

Verse
~~~~~
      F#   D
E: |----------|
B: |--11------|
G: |--11---11-| x 2
D: |--11---12-|
A: |--9----12-|
E: |-------10-|

Chorus
~~~~~~
      F#
E: |-----------------------------------------------------|
B: |------11-----------11-----------11-------------------|
G: |----------11-----------11-----------11-----------11--|
D: |---------------------------------------------11------|
A: |--9------------9------------9------------9-----------|
E: |-----------------------------------------------------|

      D
E: |-----------------------------------------------------|
B: |------10-----------10-----------10-------------------|
G: |----------11-----------11-----------11-----------11--| x 10
D: |---------------------------------------------12------|
A: |--12-----------12-----------12-----------12----------|
E: |-----------------------------------------------------|

11. Just Like Me


Song Title:	Just Like Me
Album:		Girl (2001)
Band:		Eskimo Joe
Tabbed By:	Ktulu (sirktulu@hotmail.com)
Tabbed For:	http://eskyjoe.cjb.net/
Date Tabbed:	02/04/03
Last Modified:	--/--/-


If you have any corrections please email me.

Listen to song for strumming.

Order:
   Intro
   Verse
   Chorus
   Lead Break
   Verse
   Chorus
   Bridge
   Chorus

Intro
~~~~~

E: |-----------------------------------------------------|
B: |------6-----------6-----------------6-------------4--|
G: |--6---6---6---6-8-6-6-----------6-8-6-6-----------6--|
D: |------8-106---7-------6-5-----4---------6-5-----4-4--|
A: |----8-------7-------------6/7---------------6/7------|
E: |-----------------------------------------------------|

Verse
~~~~~
      Bbm     A       c#      F#      A
E: |--6-------5-------4-------2-------5---------|
B: |--6-------5-------6-------2-------5---------|
G: |--6-------6-------6-------3-------6---------| x 2
D: |--8-------7-------6-------4-------7---------|
A: |--8-------7-------4-------4-------7---------|
E: |--6-------5-------4-------2-------5---------|

      Bbm     A       c#      F#
E: |--6-------5-------4-------2-----------------|
B: |--6-------5-------6-------2-----------------|
G: |--6-------6-------6-------3-----------------|
D: |--8-------7-------6-------4-----------------|
A: |--8-------7-------4-------4-----------------|
E: |--6-------5-------4-------2-----------------|


Chorus
~~~~~~
      Eb      F#      Bbm     G#      Eb      F#      C#      A       C#      A
E: |--6-------2-------6-------4-------6-------2-------4-------5-------4-------5--------|
B: |--8-------2-------6-------4-------8-------2-------6-------5-------6-------5--------|
G: |--8-------3-------6-------5-------8-------3-------6-------6-------6-------6--------|
D: |--8-------4-------8-------6-------8-------4-------6-------7-------6-------7--------|
A: |--6-------4-------8-------6-------6-------4-------4-------7-------4-------7--------|
E: |--6-------2-------6-------4-------6-------2-------4-------5-------4-------5--------|

Lead Break (Guitar 1)
~~~~~~~~~~~~~~~~~~~~~
E: |--------------------------------------------|
B: |--------------------------------------------|
G: |--------------------------------------------|
D: |--------------------------------------------|
A: |-----8p6h8---8p6\4-4---------6---4-6h7p6h7--|
E: |-----------------------5/6------------------|

E: |--------------------------------------------|
B: |--------------------------------------------|
G: |-----15--------------15---------------------|
D: |-------15--13141314----15------13--13141314-|
A: |---------16--------------1616----16---------|
E: |--------------------------------------------|

Lead Break (Guitar 2)
~~~~~~~~~~~~~~~~~~~~~
      Bbm     A       c#      F#      A
E: |--6-------5-------4-------2-------5---------|
B: |--6-------5-------6-------2-------5---------|
G: |--6-------6-------6-------3-------6---------| x 2
D: |--8-------7-------6-------4-------7---------|
A: |--8-------7-------4-------4-------7---------|
E: |--6-------5-------4-------2-------5---------|


Bridge
~~~~~~
      F#              A               C#      A       C#      A
E: |--2---------------5---------------4-------5-------4-------5--|
B: |--2---------------5---------------6-------5-------6-------5--|
G: |--3---------------6---------------6-------6-------6-------6--| x 2
D: |--4---------------7---------------6-------7-------6-------7--|
A: |--4---------------7---------------4-------7-------4-------7--|
E: |--2---------------5---------------4-------5-------4-------5--|

12. Driver

Song Title:	Driver
Album:		Girl (2001)
Band:		Eskimo Joe
Tabbed By:	Ktulu (jerry@kornmail.zzn.com)
Date Tabbed:	12/12/01

If you have any corrections please email me.

Listen to CD for strumming.

Intro
~~~~~
     F    A#
E: |---------|
B: |------3--|
G: |-2----3--| x 3
D: |-3----3--|
A: |-3----1--|
E: |-1-------|

Verse
~~~~~
      F    A#   F    A#   C#   A# C# F    A#   F    A#   F    A#   C#   A# C# F
E: |-----------------------------------------------------------------------------|
B: |-------3---------3----6----3--6-------3---------3---------3----6----3--6-----|
G: |--2----3----2----3----6----3--6--2----3----2----3----2----3----6----3--6--2--|
D: |--3----3----3----3----6----3--6--3----3----3----3----3----3----6----3--6--3--|
A: |--3----1----3----1----4----1--4--3----1----3----1----3----1----4----1--4--3--|
E: |--1---------1--------------------1---------1---------1--------------------1--|

Chorus 1
~~~~~~~~
      A# C# F    A# C# F
E: |----------------------|
B: |--3--6-------3--6-----|
G: |--3--6--2----3--6--2--|
D: |--3--6--3----3--6--3--|
A: |--1--4--3----1--4--3--|
E: |--------1----------1--|

Verse
~~~~~
      F    A#   F    A#   C#   A# C# F    A#   F    A#   F    A#   C#   A# C# F
E: |-----------------------------------------------------------------------------|
B: |-------3---------3----6----3--6-------3---------3---------3----6----3--6-----|
G: |--2----3----2----3----6----3--6--2----3----2----3----2----3----6----3--6--2--|
D: |--3----3----3----3----6----3--6--3----3----3----3----3----3----6----3--6--3--|
A: |--3----1----3----1----4----1--4--3----1----3----1----3----1----4----1--4--3--|
E: |--1---------1--------------------1---------1---------1--------------------1--|

Chorus 2
~~~~~~~~
      A# C# F    A# C# F    G# A# F
E: |---------------------------------|
B: |--3--6-------3--6----------3-----|
G: |--3--6--2----3--6--2----5--3--2--|
D: |--3--6--3----3--6--3----6--3--3--|
A: |--1--4--3----1--4--3----6--1--3--|
E: |--------1----------1----4-----1--|

Solo - Guitar 1
~~~~~~~~~~~~~~~
E: |----------------------------------------|
B: |----------------------------------------|
G: |--10\5/6\3-3/10\5/6\3-3/10\5/6\3-3/10~--|
D: |----------------------------------------|
A: |----------------------------------------|
E: |----------------------------------------|

Solo - Guitar 2
~~~~~~~~~~~~~~~
(Played at the same time as Guitar 1)
E: |----------------------------------------|
B: |----------------------------------------|
G: |------------------13\12-13--------------|
D: |----------------------------------------|
A: |----------------------------------------|
E: |----------------------------------------|

Chorus 3
~~~~~~~~
      A# C# F    A# C# F    A# C# F    G# A# F
E: |--------------------------------------------|
B: |--3--6-------3--6-------3--6----------3-----|
G: |--3--6--2----3--6--2----3--6--2----5--3--2--|
D: |--3--6--3----3--6--3----3--6--3----6--3--3--|
A: |--1--4--3----1--4--3----1--4--3----6--1--3--|
E: |--------1----------1----------1----4-----1--|

            
            
Suggest correction
Creating personal tab
Creating personal tab
You can edit any tab online and save it as your Personal.

You can edit, replace or remove any tab part or add personal notes – all changes will be seen only by you.

Personal tabs can be accessed anytime from any device, even offline.
Learn more »
Give kudos to tab author, rate the tab!
1 2 3 4 5
comments
print report bad tab
guest
You may want to rate the tab now too:
select rating
Wanna post a correction for this tab? Suggest correction